Owl City - Meteor Shower tab

Meteor Shower
by
Owl City
CAPO 5
PIANO: PART 1
e|-0-------0-----------------------------------------|
B|---1--------1--------------3-----1-3---------------|
G|-----0--------2--0------0-----2--------------------|
D|-----------------------2---------------------------|
A|---------------------------------------------------|
E|---------------------------------------------------|

e |-0------0----------------3----------|
B|----1-----1------------1---3---------|
G|------0-----2-0----------------------|
D|------------------2------------------|
A|-------------------------------------|
E|-------------------------------------|

e |-0------------0---------------------------3---------|
B|---1-3--1------1-3--1-----------------1---3----------|
G|-----------0----------- 2--0-----0-0-----------------|
D|-----------------------------2-0---------------------|
A|-----------------------------------------------------|
E|-----------------------------------------------------|

e |-0-----------0-----------------------------3-------|
B|---1-3--1------1-3--1--1-------------------3--------|
G|----------0------------2---0-2---0--0-2-------------|
D|---------------------------------2------------------|
A|----------------------------------------------------|
E|----------------------------------------------------|

VOICE                                    (come in here 2nd time through)
e|-------------------------0-----------------------------------------------|
B|-6-3-5-1-1/3--3-1--1--3-1--------1-3-1-----------------------------------|
G|---------------------2--------------2-------0---0-2-0-4-0-4/5------------|
D|-------------------------------------------------------------------------|
A|-------------------------------------------------------------------------|
E|-------------------------------------------------------------------------|
     
e|-----------------------------0-------------------------------------------|
B|----1-3-1----------------1--3-1------------------------------------------|
G|--2--------0---------0-2-------------------------------------------------|
D|-------------------------------------------------------------------------|
A|-------------------------------------------------------------------------|
E|-------------------------------------------------------------------------|


PIANO: PART 2
e|--------------0-----------------------------3------0----------0----------|
B|-3-1-3-1------1-3--1----1------------1----3-----1-3-1------1-3-1--1------|
G|-----------0------------2----0-----0-0--------------------0----------2---|
D|--------------------------------2-0--------------------------------------|
A|-------------------------------------------------------------------------|
E|-------------------------------------------------------------------------|

e|-------------------3-----------------|
B|----------------1---3----------------|
G|-0--2----0-0-------------------------|
D|------2------------------------------|
A|-------------------------------------|
E|-------------------------------------|

Tap to rate this tab
 
# A B C D E F G H I J K L M N O P Q R S T U V W X Y Z