Song name
# A B C D E F G H I J K L M N O P Q R S T U V W X Y Z

Owl City - Shy Violet tab

-------------------------------------------------------------------------------
			     Shy Violet - Owl City
-------------------------------------------------------------------------------
Tabbed by:AVAEmpire2009
Email:if-i-had-my-own-world@live.com

Tuning:Standard

Chords above are for the backing not actualy the chord shapes for the finger picked part
 
   C                       G           F
e|---------------------------------------------------------------------------|
B|-----1-----1-----1-----1---------------------------------------------------|
G|---0-----0-----0-----0---3-----3-----2-----2-0-----------------------------|
D|-2-----2-----2-----2-------3-----3-----3----3-3----------------------------|
A|-----------------------------5-----5-----3---------------------------------|
E|---------------------------------------------------------------------------|

   C                       G           F 
e|---------------------------------------------------------------------------|
B|-----1-----1-----1-----1---------------------------------------------------|
G|---0-----0-----0-----0---3-----3-----2-----2~~-----------------------------|
D|-2-----2-----2-----2-------3-----3-----3-----------------------------------|
A|-----------------------------5-----5-----3---------------------------------|
E|---------------------------------------------------------------------------|

C            G F  C          G     F
Light up the sky, shy violet angel eyes
C            G F  C          G     F
Light up the sky, shy violet angel eyes
C            Em                 F
She dried my eyes and drifted off
            G
While every tear was held aloft
C         Em                      F
The heavy rain clouds felt terrible
                   G
'Cause she made my stormy sky beautiful
C            G F  C          G     F
Light up the sky, shy violet angel eyes
C            G F  C          G     F
Light up the sky, shy violet angel eyes (Beautiful)
C            G F  C          G     F
Light up the sky, shy violet angel eyes (Beautiful)
C            G F  C          G     F
Light up the sky, shy violet angel eyes


More lyrics: http://www.lyricsmode.com/lyrics/o/owl_city/#share


************************************

| /   slide up
| \   slide down
| h   hammer-on
| p   pull-off
| ~   vibrato
| +   harmonic
| x   Mute note
| b   Bend
| pb  Pre-bend
| br  Bend release
| pbr Pre-bend release
| brb Bend release bend

Tap to rate this tab
# A B C D E F G H I J K L M N O P Q R S T U V W X Y Z