Song name
# A B C D E F G H I J K L M N O P Q R S T U V W X Y Z

Owl City - Fireflies tab

song: fireflies
band: owl city
this tabs pretty difficult but youll get the hang of it after awhile

e|----------10-----------6----------------------------------------|
B|------------------------------------------------------11--------|
G|-------------------------------8-----------10--8--10---------8--|
D|------8------------8--------------------8-----------------8-----|
A|---------------------------6-------6----------------------------|
E|--6-----------6-------------------------------------------------|

e|----------------------------------------------------------------|
B|--------------------4-------------------------------------------|
G|-----------5--3--5-------------------5--3---------8--10---------|
D|------6-------------------6-----6--------------8----------------|
A|----------------------------------------------------------------|
E|--4--------------------4-----4--------------6-------------------|

e|----------10-----------6----------------------------------------|
B|--------------------------------------------------11--8---------|
G|-------------------------------8-----------10--8---------8------|
D|------8------------8--------------------8-------------------8---|
A|---------------------------6-------6----------------------------|
E|--6-----------6-------------------------------------------------|

e|----------------------------------------------------------------|
B|--------------------4-------------------------------------------|
G|-----------5--3--5-------------------5--3---------8--10---------|
D|------6-------------------6-----6--------------8----------------|
A|----------------------------------------------------------------|
E|--4--------------------4-----4--------------6-------------------|

thats it enjoy :D
tabed by:Castro
Tap to rate this tab
 
# A B C D E F G H I J K L M N O P Q R S T U V W X Y Z