Song name
# A B C D E F G H I J K L M N O P Q R S T U V W X Y Z

Owl City - Sunburn tab

TUNING!!!!!
E (Leave the same)
A (Tune down from B)
A (Tune up from G)
E (tune up from D)
A (Leave the same)
D (Tune down from E)

Capo - 3rd Fret

p = pull off
x =completely muted string
+ = natural harmonic

Try to let all notes ring out for as long as possible

160bpm

E--0--0------------0---------------------x--------x------|
A--0-------------------------------------0--------x------|
A--2/4-4/2-p0----0---0---------0------0--0--------x-+15--|
E--0----------2/4-------0----0------0----0--------x-+15--|
A--0-------------------------------------0--------x------|
D--------------------------2------4------0--------x------|

E--0--0------------0----------------------x---0x---------|
A--0--------------------------------------0---0x---------|
A--2/4-4/2-p0----0---0---------0-------0--0---0x---------|
E--0---------2/4--------0----0-------0----0---0x---------|
A--0--------------------------------------0---0x---------|
D--------------------------2-------4------0---0x---------|

Please email me and let me know if this is incorrect =]
Tap to rate this tab
# A B C D E F G H I J K L M N O P Q R S T U V W X Y Z