Song name
# A B C D E F G H I J K L M N O P Q R S T U V W X Y Z

Owl City - Take To The Sky tab

Take to the sky - Owl City
(tab for the other parts no chords)
Tuning - Standard
No Capo

Intro tabbed by kg

        Guitar 1                       Guitar 2

e-------15-------15-----15--|-------------------------------|
B-13-------13--------13-----|----8---8----------------------|
G----17-------17------------|--9---9---7-7-7-10-10-10-7-7-7-|
D---------------------------|-------------------------------|
A---------------------------|-------------------------------|
E---------------------------|-------------------------------|

Lick
Start after "Carry me away from here"
e--------------------------------------------------|
B----13-10\13-12-----13-12\15-13------13-10\13-12--|
G-14--------------14---------------14--------------|
D--------------------------------------------------|
A--------------------------------------------------|
E--------------------------------------------------|

e---------------------------------------------------|
B---13-12\15-13------13-10\13-12-----13-12h13\15-13-|
G-14---------------14--------------14---------------|
D---------------------------------------------------|
A---------------------------------------------------|
E---------------------------------------------------|

e-------------------------------------|
B----13-12\17-13----13-15-13-12\17-13-|
G-14-------------14-------------------|
D-------------------------------------|
A-------------------------------------|
E-------------------------------------|

after end of chorus or the line "Take to the sky"

e--------------------------------------|
B--------------------------------------|
G-----0----0----0----0---0---0---0---0-|
D--12---12---10---10---9---9---7---7---|
A--------------------------------------|
E--------------------------------------|
Tap to rate this tab
 
# A B C D E F G H I J K L M N O P Q R S T U V W X Y Z