Song name
# A B C D E F G H I J K L M N O P Q R S T U V W X Y Z

Owl City - Hello Seattle tab

Begining (Hello Seattle I m....)

 ----7--------------7---------------------------7------------|
 ------8--10--8---8-----10--8--------8---10--8----8----------|
 ----7----------9-------------7---9--------------------------| Repeat this
 ------------------------------------------------------------|
 ------------------------------------------------------------|
 ------------------------------------------------------------|

Last Part (Take me above your.....)

 --7------------------7------7-----------5---7--------------|
 -----10---8--------------------10---8----------------------|
 ------------7---9------------------------------9-----------|
 -----------------------------------------------------------|
 -----------------------------------------------------------|
 -----------------------------------------------------------|

 Hope You Like It
Tap to rate this tab
# A B C D E F G H I J K L M N O P Q R S T U V W X Y Z