Song name
# A B C D E F G H I J K L M N O P Q R S T U V W X Y Z

Owl City - Honey And The Bee tab

Okay I don't really know what to do with the chorus yet, but I have the verses down pat. 
 I'll keep working on it and add in the chorus and the bridge when I can figure 
something out.

You have to play it at a decent speed before it will sound right. If you listen to the 
song you should be able to get it. Definitely easiest to use your fingers with this one 
instead of a pick.

Start off with fingers in classic C position

No capo

Intro

----0--------------------0------------------|
--------1---0---1------------1---0---1------|
--------------------0--------------------0--|
--------------------------------------------|
--3---3---3---3---3----3---3---3---3---3----|
--------------------------------------------|

Don't remind me, some days I'm the windshield
----0-------------------0------------------|
--------1---0---1-----------1---0---1------|
--------------------0-------------------0--|
-------------------------------------------|
--3---3---3---3---3---3---3---3---3---3----|
-------------------------------------------|

and other days I'm just a lucky bug
----0---------------------0-----------------|
---------1-------1-------------1-------1----|
------------2--------2-------------2------2-|
--3---3---3---3----3-----3---3---3---3------|
--------------------------------------------|
--------------------------------------------|

These cold iron rails leave old mossy trails through the countryside
----0-------------------0--------------------------------------------------|
--------1---0---1-----------1---0---1-------1h3-----1h3----1h3-------1-0-1-|
--------------------0-------------------0-------0-------0------0-1s2-------|
------------------------------------------0-------2-------3----------------|
--3---3---3---3---3---3---3---3---3---3------------------------------------|
---------------------------------------------------------------------------|


The crow and the bean field
----0-------------------0------------------|
--------1---0---1-----------1---0---1------|
--------------------0-------------------0--|
-------------------------------------------|
--3---3---3---3---3---3---3---3---3---3----|
-------------------------------------------|

Are my best friends but boy I need a hug
----0---------------------0-----------------|
---------1-------1-------------1-------1----|
------------2--------2-------------2------2-|
--3---3---3---3----3-----3---3---3---3------|
--------------------------------------------|
--------------------------------------------|

Cause my heart stops without you there's something about you....
----0-------------------0--------------------------------------------------|
--------1---0---1-----------1---0---1-------1h3-----1h3----1h3-------1-0-1-|
--------------------0-------------------0-------0-------0------0-1s2-------|
------------------------------------------0-------2-------3----------------|
--3---3---3---3---3---3---3---3---3---3------------------------------------|
---------------------------------------------------------------------------|


(Second verse is same as the first)
Tap to rate this tab
# A B C D E F G H I J K L M N O P Q R S T U V W X Y Z