Song name
# A B C D E F G H I J K L M N O P Q R S T U V W X Y Z

Owl City - Honey And The Bee tab

You have to play it at a decent speed before it will sound right. If you listen to
the song you should be able to get it. Definitely easiest to use your fingers with this one
instead of a pick.

I'll have the bridge up soon.

Start off with fingers in classic C position

No capo

Intro

----0--------------------0------------------|
--------1---0---1------------1---0---1------|
--------------------0--------------------0--|
--------------------------------------------|
--3---3---3---3---3----3---3---3---3---3----|
--------------------------------------------|

Don't remind me, some days I'm the windshield
----0-------------------0------------------|
--------1---0---1-----------1---0---1------|
--------------------0-------------------0--|
-------------------------------------------|
--3---3---3---3---3---3---3---3---3---3----|
-------------------------------------------|

and other days I'm just a lucky bug
----0---------------------0-----------------|
---------1-------1-------------1-------1----|
------------2--------2-------------2------2-|
--3---3---3---3----3-----3---3---3---3------|
--------------------------------------------|
--------------------------------------------|

These cold iron rails leave old mossy trails through the countryside
----0-------------------0--------------------------------------------------|
--------1---0---1-----------1---0---1-------1h3-----1h3----1h3-------1-0-1-|
--------------------0-------------------0-------0-------0------0-1s2-------|
------------------------------------------0-------2-------3----------------|
--3---3---3---3---3---3---3---3---3---3------------------------------------|
---------------------------------------------------------------------------|


The crow and the bean field
----0-------------------0------------------|
--------1---0---1-----------1---0---1------|
--------------------0-------------------0--|
-------------------------------------------|
--3---3---3---3---3---3---3---3---3---3----|
-------------------------------------------|

Are my best friends but boy I need a hug
----0---------------------0-----------------|
---------1-------1-------------1-------1----|
------------2--------2-------------2------2-|
--3---3---3---3----3-----3---3---3---3------|
--------------------------------------------|
--------------------------------------------|

Cause my heart stops without you there's something about you....
----0-------------------0--------------------------------------------------|
--------1---0---1-----------1---0---1-------1h3-----1h3----1h3-------1-0-1-|
--------------------0-------------------0-------0-------0------0-1s2-------|
------------------------------------------0-------2-------3----------------|
--3---3---3---3---3---3---3---3---3---3------------------------------------|
---------------------------------------------------------------------------|




Chorus

(progression) F G Am F G C

If the green left the green left the grass on the other side
----1-----------1-------3---------0--------|
--------1-----------1-----------------2----|
------------2---------------0--------------|
--3---3---3---3---3-------------2---2---2--|
-------------------------------------------|
----------------------3---3---3------------|

I would make like a tree and leave
----1-----------1---------0-----------|
--------1-----------1---3---3--1---1--|
------------2--------------------0----|
--3---3---3---3---3-------------------|
--------------------------------------|
----------------------3---------------|

But if I reached for your hand would your eyes get wide
----1-----------1-------3---------0--------|
--------1-----------1-----------------2----|
------------2---------------0--------------|
--3---3---3---3---3-------------2---2---2--|
-------------------------------------------|
----------------------3---3---3------------|

Who knew the other side could be so green
----1-----------1-------0-----------|
--------1-----------1------------1--|
------------2---------------0----0--|
--3---3---3---3---3-----------------|
---------------------------------3--|
----------------------3---3---3-----|


Verse 2 (same as verse 1)

Don't remind me I'm a chickadee in love with the sky
But that's clearly not a lot to crow about
Cause when the stars silhouette me
I'm scared they'll forget me and flicker out
I taste the honey but I haven't seen the hive
I didn't look I didn't even try
But my heart stops without you
There's just something about you that makes me feel alive
Tap to rate this tab
# A B C D E F G H I J K L M N O P Q R S T U V W X Y Z