Song name
# A B C D E F G H I J K L M N O P Q R S T U V W X Y Z

Owl City - Fireflies Live tab

Song  : Fireflies, from "Owl City: Live From Los Angeles"
Artist: Owl City (Adam Young)
Tuning: Standard

Intro

|-------------------------------------------------|
|-------------------------------------------------|
|-------------------------------------------------|
|-666------10------88---------666------10------88-|
|-666------10------88---------666------10------88-|
|-444------8-------66---------444------8-------66-|

|----------------------------------------------------------|
|----------------------------------------------------------|
|----------------------------------------------------------|
|--8----5---666------10------88-----666------10--10----88--|
|--8----5---666------10------88-----666------10--10----88--|
|--6----3---444------8-------66-----444------8---8-----66--|

PM..  ..  ..   ...      ..  ..  ..   ...
|--------------------------------------------|
|--------------------------------------------|
|--------------------------------------------|
|-66--66--66---666------88--88--88---88855---|
|-66--66--66---666--68--88--88--88---888--6--|
|-44--44--44---44468----66--66--66---666---8-|


PM..  ..  ..   ...      ..  ..  ..   ...
|--------------------------------------------|
|--------------------------------------------|
|--------------------------------------------|
|-66--66--66---666------88--88--88---8885----|
|-66--66--66---666--68--88--88--88---888-6---|
|-44--44--44---44468----66--66--66---666--86-|

PM..  ..  ..   ...      ..  ..  ..   ..
|--------------------------------------------|
|--------------------------------------------|
|--------------------------------------------|
|-66--66--66---666------88--88--66---88-(6)--|
|-66--66--66---666--68--88--88--88---88-(6)--|
|-44--44--44---44468----66--66--66---66-(4)--|



|--------------------------------------------|
|--------------------------------------------|
|--------------------------------------------|
|-6-6-6-6---10-10-10-10---8-8-8-8-8-8-8-8----|
|-6-6-6-6---10-10-10-10---8-8-8-8-8-8-8-8----|
|-4-4-4-4---8--8--8--8----6-6-6-6-6-6-6-6----|

|--------------------------------------------|
|--------------------------------------------|
|--------------------------------------------|
|-6-6-6-6---13-13-13-13---5-5-5-5---6-6-6-6--|
|-6-6-6-6---13-13-13-13---5-5-5-5---6-6-6-6--|
|-4-4-4-4---11-11-11-11---3-3-3-3---4-4-4-4--|

|-----------------------------------------------|
|-----------------------------------------------|
|-----------------------------------------------|
|-6-6-6-6---13-13-13-13---6-6-8-8---10-10-10-10-|
|-6-6-6-6---13-13-13-13---6-6-8-8---10-10-10-10-|
|-4-4-4-4---11-11-11-11---4-4-6-6---8--8--8--8--|

|------------------------------------------|
|------------------------------------------|
|------------------------------------------|
|-6-6-6-6---13-13-13-13---8-8-8-8-8-8---10-|
|-6-6-6-6---13-13-13-13---8-8-8-8-8-8---10-|
|-4-4-4-4---11-11-11-11---6-6-6-6-6-6---8--|



Chorus:

|--------------------------------------------|
|--------------------------------------------|
|--------------------------------------------|
|-6-6-6-6---10-10-10-10---8-8-8-8-8-8-8-8----|
|-6-6-6-6---10-10-10-10---8-8-8-8-8-8-8-8----|
|-4-4-4-4---8--8--8--8----6-6-6-6-6-6-6-6----|

|--------------------------------------------|
|--------------------------------------------|
|--------------------------------------------|
|-6-6-6-6---13-13-13-13---5-5-5-5---6-6-6-6--|
|-6-6-6-6---13-13-13-13---5-5-5-5---6-6-6-6--|
|-4-4-4-4---11-11-11-11---3-3-3-3---4-4-4-4--|

|-----------------------------------------------|
|-----------------------------------------------|
|-----------------------------------------------|
|-6-6-6-6---13-13-13-13---6-6-8-8---10-10-10-10-|
|-6-6-6-6---13-13-13-13---6-6-8-8---10-10-10-10-|
|-4-4-4-4---11-11-11-11---4-4-6-6---8--8--8--8--|

|------------------------------------------|
|------------------------------------------|
|------------------------------------------|
|-6-6-6-6---13-13-13-13---8-8-8-8-8-8---10-|
|-6-6-6-6---13-13-13-13---8-8-8-8-8-8---10-|
|-4-4-4-4---11-11-11-11---6-6-6-6-6-6---8--|


For the second chorus, just repeat the chorus 2 times.
Have Fun!!!

This is my first tab, please correct me if I'm wrong! :D
Tap to rate this tab
# A B C D E F G H I J K L M N O P Q R S T U V W X Y Z