Song name
# A B C D E F G H I J K L M N O P Q R S T U V W X Y Z

Owl City - Meteor Shower tab

Tabbed by: Omegaxis26

Capo: 1st fret
Tuning: Standard

Intro Goes like...

e---4--0----4--0------------2-----0----|
B--------0-------2--0----0-----2-----2-|
G----------------------1---------------|
D--------------------------------------|
A--------------------------------------|
E--------------------------------------|

e---4--0----4--0----------0--7--2------|
B--------0-------2--0------------------|
G----------------------1---------------|
D--------------------------------------|
A--------------------------------------|
E--------------------------------------|

e---4--0--2--0-----4--0--2--0-----------------------0--7--2--|
B---------------0--------------2--0--------0--0--0-----------|
G------------------------------------1-----------------------|
D---------------------------------------4--------------------|
A------------------------------------------------------------|
E------------------------------------------------------------|


e---4--0--2--0-----4--0--2--0--------------------------7--2--|
B---------------0--------------2--0--2-----0--0--0--2--------|
G---------------------------------------1--------------------|
D------------------------------------------------------------|
A------------------------------------------------------------|
E------------------------------------------------------------|


When voice enters...

    I can finally see, That you're Right there beside me.
e---5--2---4--0----2-|--2------0-----------0---2s4-2--0-|
B--------------------|---------------0------------------|
G--------------------|----------------------------------|
D--------------------|----------------------------------|
A--------------------|----------------------------------|
E--------------------|----------------------------------|

    I am not my own, For I have been made new.
e--10-13-15--13--8-|--8-10--8----12---8---13-|
B------------------|-------------------------|
G------------------|-------------------------|
D------------------|-------------------------|
A------------------|-------------------------|
E------------------|-------------------------|

   Please don't let me go,  I desperately need you.
e----10---13-----15-13-8-|--8-10--13--16---14---12|
B------------------------|------------------------|
G------------------------|------------------------|
D------------------------|------------------------|
A------------------------|------------------------|
E------------------------|------------------------|

~instrumental break~
then, repeat the part with...

    I am not my own, For I have been made new.
e--10-13-15--13--8-|--8-10--8----12---8---13-|
B------------------|-------------------------|
G------------------|-------------------------|
D------------------|-------------------------|
A------------------|-------------------------|
E------------------|-------------------------|

   Please don't let me go,  I desperately need you.
e----10---13-----15-13-8-|--8-10--13--16---14---12|
B------------------------|------------------------|
G------------------------|------------------------|
D------------------------|------------------------|
A------------------------|------------------------|
E------------------------|------------------------|

then play the bit in the last part that goes...
e--5--2--5--4--0-|
B----------------|
G----------------|
D----------------|
A----------------|
E----------------|


'Guess that's all of it. Hope you like it. :)
Rate and comment.
~Enjoy!!!~ 
Tap to rate this tab
# A B C D E F G H I J K L M N O P Q R S T U V W X Y Z