Song name
# A B C D E F G H I J K L M N O P Q R S T U V W X Y Z

Owl City - Speed Of Love tab

-----------------------------------------------------------------------------
                           SPEED OF LOVE // OWL CITY
-----------------------------------------------------------------------------
Tabbed by: Swaggertooth
E-mail: jkok1@binghamton.edu

This tab follows the lyrical melody - for chords, you can play around with the
Bb Ab F Eb and C power chords. I'm not as sure as the chord progression for the
verses but this melody should be correct.

Drop D.
I believe the song is in Db major, but you could probably get away with playing in C major.

Reoccurring riff (simple) x 8
e|----------------------------------------------------------------------------|
B|----------------------------------------------------------------------------|
G|----------------------------------------------------------------------------|
D|--3-------3-1---------------------------------------------------------------|
A|1---1--1------4-3--3-4------------------------------------------------------|
D|----------------------------------------------------------------------------|

Verse 1
I tried to disappear / But you're the only reason that I'm floating here
e|-------------------------------------------------------------------------|
B|-------------------------------------------------------------------------|
G|-------------------------------------------------------------------------|
D|-------------------------------------------------------------------------|
A|-------------------------------------------------------------------------|
D|8--10-11-10-6-3-/-3-10-11-10-11-10-6-3-1-1-6-3---------------------------|

Eyes, painted crystal clear / I can see the future through the atmosphere
e|-------------------------------------------------------------------------|
B|-------------------------------------------------------------------------|
G|-------------------------------------------------------------------------|
D|-------------------------------------------------------------------------|
A|-----------------6-8-6-8-6-4--------6-4----------------------------------|
D|8-10-11-10-6-3-/-------------10-8-6--------------------------------------|

Prechorus

So don't, you go, no do-on't you go oh / Don't, you know I'm up here alone
e|-------------------------------------------------------------------------|
B|-------------------------------------------------------------------------|
G|-------------------------------------------------------------------------|
D|-------------------------------------------------------------------------|
A|----8-6-------6-4-------8-6-------6-4------------------------------------|
D|6-8------8-6-6-----6-/-8-----8-6-6---------------------------------------|

Yea I'm (So high), like a satellite / Sending you a signal tonight
e|-------------------------------------------------------------------------|
B|-------------------------------------------------------------------------|
G|-------------------------------------------------------------------------|
D|-------------------------------------------------------------------------|
A|--------------------6-8-6-8-6-4------------------------------------------|
D|6-8--10-11-10-6-3-/-------------10-6-------------------------------------|

Chorus (power chords)

6               3         1               3         1           3      1
Oh oh oh Like a streak of light/Watch the world fly by/Rev your engine up
e|-------------------------------------------------------------------------|
B|-------------------------------------------------------------------------|
G|-------------------------------------------------------------------------|
D|6666666611113333---------------------------------------------------------|
A|6666666611113333 x3------------------------------------------------------|
D|6666666611113333---------------------------------------------------------|

1           3            (6)       (8)
Everybody's racing at the speed of love
(last two chords absent in all but 2nd to last chorus)
(Keyboard + logic say go Eb F Ab Bb, but on my guitar Eb F G Ab worked better)
e|-------------------------------------------------------------------------|
B|-------------------------------------------------------------------------|
G|-------------------------------------------------------------------------|
D|1111333366668888 or 1111333355556666-------------------------------------|
A|1111333366668888 or 1111333355556666-------------------------------------|
D|1111333366668888 or 1111333355556666-------------------------------------|

Riff x2

Verse 2
You, were so hard to find / With oh so many clouds across my summer sky
e|-------------------------------------------------------------------------|
B|-------------------------------------------------------------------------|
G|-------------------------------------------------------------------------|
D|-------------------------------------------------------------------------|
A|-------------------------------------------------------------------------|
D|8-10-11-10-6-3-/-8-10-11-10-11-10-6-3-1-1-6-3----------------------------|

You, my constellation prize / Yea every single star is sparkling in your eyes
e|-------------------------------------------------------------------------|
B|-------------------------------------------------------------------------|
G|-------------------------------------------------------------------------|
D|-------------------------------------------------------------------------|
A|---------------------6-8-6-8-6-4--------6-4------------------------------|
D|8-3-10-11-10-6-8-/-8-------------10-8-6----------------------------------|

Prechorus
Chorusx2

Break
One track one mind one race to win / One start one heart one life to live x2
e|-------------------------------------------------------------------------|
B|-------------------------------------------------------------------------|
G|-------------------------------------------------------------------------|
D|3---3---3------ x4-------------------------------------------------------|
A|--1---1---3-3-4 x4-------------------------------------------------------|
D|-------------------------------------------------------------------------|

Chorus x2
Riff x4
And that's it! Enjoy:D
Tap to rate this tab
 
# A B C D E F G H I J K L M N O P Q R S T U V W X Y Z