Song name
# A B C D E F G H I J K L M N O P Q R S T U V W X Y Z

Owl City - Good Time Acoustic tab

----------------------------------------------------------------------
                  GOOD TIME - Owl City & Carly Rae Jepsen
----------------------------------------------------------------------

Hey guys. So Adam does an acoustic version of "Good Time" and no one's made a
tab for it yet, so I thought I would. He gave us the tuning on twitter, and
then I used this video for reference: http://www.youtube.com/watch?v=6LjlgyBdOoA

Basically you just finger-pick the verse and strum the chorus using these 
four chords over and over again. 

Tuning: DAEAAe
Capo 3

Chords: 
D   002000
A   X00400
E   224000
F#m 445000

Verse 1:
e|--------------------------------------------------|
A|--------------------------------------------------|
A|--------0-----------0-----------0-----------0-----|
E|-----0-----0-----0-----0-----0-----0-----0-----0--|
A|--------------0-----------------------------------|
D|--0-----------------------2-----------4-----------|
         Woke up  on the right side of the bed

e|--------------------------------------------------|
A|--------------------------------------------------|
A|--------0-----------0-----------0-----------0-----|
E|-----0-----0-----0-----0-----0-----0-----0-----0--|
A|--------------0-----------------------------------|
D|--0-----------------------2-----------4-----------|
       What's up with this Prince song inside my head?

e|--------------------------------------------------|
A|--------------------------------------------------|
A|--------0-----------0-----------0-----------0-----|
E|-----0-----0-----0-----0-----0-----0-----0-----0--|
A|--------------0-----------------------------------|
D|--0-----------------------2-----------4-----------|
        Hands up if you're down to get down tonight

e|--------------------------------------------------|
A|--------------------------------------------------|
A|--------0-----------0-----------0-----------0-----|
E|-----0-----0-----0-----0-----0-----0-----0-----0--|
A|--------------0-----------------------------------|
D|--0-----------------------2-----------2-----------|
                    'Cause it's always a good time

(repeat for second verse)

Slept in all my clothes like I didn't care
Hopped into a cab, "Take my anywhere."
I'm in if you're down to get down tonight
'Cause it's always a good time.


Pre-chorus: (see chords above)

D      A           E    F#m
  Good morning and good night

D   A          E  F#m
  I wake up at twilight

D      A        E F#m
  It's gonna be alright

D             A             E
We don't even have to try - it's always a good time



Chorus:

D             A     E     F#m
 Whoa-oh-whoa-oh-oh-oh-oh-oh

D             A     E             F#m
 Whoa-oh-whoa-oh-oh it's always a good time

D             A     E     F#m
 Whoa-oh-whoa-oh-oh-oh-oh-oh

D             A             E
We don't even have to try - it's always a good time


(Interlude - finger-picking part)


Verse 3 (same as verse 1):

Freaked out, dropped my phone in the pool again
Checked out of my room, hit the ATM
Let's hang out if you're down to get down tonight
'Cause it's always a good time 


Pre-chorus:

D      A           E    F#m
  Good morning and good night

D   A          E  F#m
  I wake up at twilight

D      A        E F#m
  It's gonna be alright

D             A             E
We don't even have to try - it's always a good time


Chorus:

D             A     E     F#m
 Whoa-oh-whoa-oh-oh-oh-oh-oh

D             A     E             F#m
 Whoa-oh-whoa-oh-oh it's always a good time

D             A     E     F#m
 Whoa-oh-whoa-oh-oh-oh-oh-oh

D             A             E
We don't even have to try - it's always a good time

(repeat)


Bridge (same as verse)

It doesn't matter when; it's always a good time then
It doesn't matter where; it's always a good time there
It doesn't matter when; it's always a good time then.


(Chorus x2)
Tap to rate this tab
# A B C D E F G H I J K L M N O P Q R S T U V W X Y Z