Song name
# A B C D E F G H I J K L M N O P Q R S T U V W X Y Z

Owl City - Deer In The Headlights tab

This is one cool song, Decided to tab it,
thanks to one of my friends (Julius) for
showing me this song for the first time,
and Nick for introducing me to Owl City. :D

We have Exams next week so i still havent tabbed the 
rest of the song, this is my first tab anyways
so don't expect it to be perfect.

I tried to make it sound the same as the song

Feel free to comment or email if something is
wrong... Thanks!

======================
        INTRO
======================

Guitar 1

(Plays throughout the whole song)

e|-------10---------10---------10---------10-----|
B|----10----10---10----10---10----10---10----10--|
G|--7----------7----------7----------7-----------|
D|-----------------------------------------------|
A|-----------------------------------------------|
E|-----------------------------------------------|

Guitar 2

(Start at the second Riff of Guitar 1)

e|---------------------------|
B|---------------------------|
G|--2-2--4-4--7-7--6-6--7-7--|
D|--0-0--0-0-----------------|
A|------------5-5--5-5--5-5--|
E|---------------------------|

e|-------------------------------|
B|-------------------------------|
G|--2-2--4-4--7-7--6-6--9-9--11--|
D|--0-0--0-0---------------------|
A|------------5-5--5-5--7-7--7---|
E|-------------------------------|

e|-------------------------------|
B|-------------------------------|
G|--2/4--4-4--7-7--6-6--8h9-8h9--|
D|--0----2-2---------------------|
A|------------5-5--5-5--7---7----|
E|-------------------------------|


e|------------------------------|
B|------------------------------|
G|--2/4--4-4--7-7--6-6--9--8----|
D|--0----2-2--------------------|
A|------------5-5--5-5--7--7----|
E|------------------------------|

e|-----------------------------------|
B|----------------9--6--11h12-11h12--|
G|--2/4-4-4--7/9---------------------|
D|--0---0-0-------10-7--10----10-----|
A|-----------5-----------------------|
E|-----------------------------------|

e|-------------------------------|
B|----------------9--6-----------|
G|--2/4-4-4--7/9--------6h7-6h7--|
D|--0---0-0-------10-7-----------|
A|-----------5----------5---5----|
E|-------------------------------|


Tap to rate this tab
# A B C D E F G H I J K L M N O P Q R S T U V W X Y Z