Song name
# A B C D E F G H I J K L M N O P Q R S T U V W X Y Z

Owl City - Good Time Acoustic tab

Artist: Owl City
Album: The Midsummer Station Acoustic
Song: Good Time
Tabbed by: Frenchboy/magicberu


Key: C | Capo: 5



This acoustic version is actually played with an original tuning (DAEAAE), but I 
prefered to tab this song with the standard tuning and the capo in order to help people who 
can't tune their guitar or have issues to do it.
This is quite the same sound, but I hope it will help you.
Enjoy! :)





Intro & instrumental between the chorus and the second verse:

e|---------------------------------------------------------------------------|
B|---------------------------------------------------------------------------|
G|---0-----------0------------0------------0---------------------------------|
D|-2---2-------0---0--------4---4--------2---2-------------------------------|
A|3-----------------------5--------------------------------------------------|
E|-----------3-------------------------0-------------------------------------|

e|---------------------------------------------------------------------------|
B|---------------------------------------------------------------------------|
G|---0-----------0------------0-----------0----------------------------------|
D|-2---2-------0---0--------4---4-------4---4--------------------------------|
A|3-----------------------5-----------5--------------------------------------|
E|-----------3---------------------------------------------------------------|


Verses (first verse = 2 times; play once for the second verse):


e|---------------------------------------------------------------------------|
B|---------------------------------------------------------------------------|
G|---0-----------0------------0------------0---------------------------------|
D|-2---2-------0---0--------4---4--------2---2-------------------------------|
A|3-----------------------5--------------------------------------------------|
E|-----------3-------------------------0-------------------------------------|


e|---------------------------------------------------------------------------|
B|---------------------------------------------------------------------------|
G|---0-----------0------------0------------0---------------------------------|
D|-2---2-------0---0--------4---4--------2---2-------------------------------|
A|3-----------------------5--------------------------------------------------|
E|-----------3-------------------------0-------------------------------------|


e|---------------------------------------------------------------------------|
B|---------------------------------------------------------------------------|
G|---0-----------0------------0------------0---------------------------------|
D|-2---2-------0---0--------4---4--------2---2-------------------------------|
A|3-----------------------5--------------------------------------------------|
E|-----------3-------------------------0-------------------------------------|


e|---------------------------------------------------------------------------|
B|---------------------------------------------------------------------------|
G|---0-----------0------------0-----------0----------------------------------|
D|-2---2-------0---0--------4---4-------4---4--------------------------------|
A|3-----------------------5-----------5--------------------------------------|
E|-----------3---------------------------------------------------------------|





Pre-chorus and bridge:


e|---------------------------------------------------------------------------|
B|---------------------------------------------------------------------------|
G|-0-0-0-0----0-0-0-0------0-0-0-0-----0-0-0-0-----0-0-0-0-----0-0-0-0-------|
D|-5-5-5-5----5-5-5-5------4-4-4-4-----5-5-5-5-----5-5-5-5-----5-5-5-5-------|
A|-3-3-3-3----5-5-5-5------5-5-5-5-----7-7-7-7-----3-3-3-3-----5-5-5-5-------|
E|------------3-3-3-3------------------------------------------3-3-3-3-------|

e|---------------------------------------------------------------------------|
B|---------------------------------------------------------------------------|
G|-0-0-0-0---0-0-0-0----0-0-0-0----0-0-0-0----0-0-0-0----0-0-0-0-------------|
D|-4-4-4-4---5-5-5-5----5-5-5-5----5-5-5-5----4-4-4-4----5-5-5-5-------------|
A|-5-5-5-5---7-7-7-7----3-3-3-3----5-5-5-5----5-5-5-5----7-7-7-7-------------|
E|---------------------------------3-3-3-3-----------------------------------|

e|---------------------------------------------------------------------------|
B|---------------------------3-3-3-3-----------------------------------------|
G|-0-0-0-0----0-0-0-0--------0-0-0-0-----------------------------------------|
D|-5-5-5-5----5-5-5-5------4-4-4-4-4-----------------------------------------|
A|-3-3-3-3----5-5-5-5------5-5-5-5-5-----------------------------------------|
E|------------3-3-3-3--------------------------------------------------------|





Chorus (play once the first time, then twice):

e|---------------------------------------------------------------------------|
B|-----3-3-------3-3--------3-3--------3-3-----------3-3-------3-3-----------|
G|-----0-0-------0-0--------0-0--------0-0-----------0-0-------0-0-----------|
D|-2-2-2-2-------0-0----4-4-4-4----2-2-2-2-------2-2-2-2-------0-0-----------|
A|-3-3-3-3---2-2-2-2----5-5-5-5----2-2-2-2-------3-3-3-3---2-2-2-2-----------|
E|-----------3-3-3-3---------------0-0-0-0-----------------3-3-3-3-----------|


e|---------------------------------------------------------------------------|
B|-----3-3-------3-3--------3-3--------3-3--------3-3--------3-3-------------|
G|-----0-0-------0-0--------0-0--------0-0--------0-0--------0-0-------------|
D|-4-4-4-4---2-2-2-2----2-2-2-2--------0-0----4-4-4-4----2-2-2-2-------------|
A|-5-5-5-5---2-2-2-2----3-3-3-3----2-2-2-2----5-5-5-5----2-2-2-2-------------|
E|-----------0-0-0-0---------------3-3-3-3---------------0-0-0-0-------------|


e|---------------------------------------------------------------------------|
B|-----3-3-------3-3--------3-3-----3-3--------------------------------------|
G|-----0-0-------0-0--------0-0-----0-0--------------------------------------|
D|-2-2-2-2-------0-0----4-4-4-4-4-4-4-4--------------------------------------|
A|-3-3-3-3---2-2-2-2----5-5-5-5-5-5-5-5--------------------------------------|
E|-----------3-3-3-3---------------------------------------------------------|


At the end of the final chorus, play the C9 chord.
Tap to rate this tab
 
# A B C D E F G H I J K L M N O P Q R S T U V W X Y Z