Song name
# A B C D E F G H I J K L M N O P Q R S T U V W X Y Z

Owls - Everyone Is My Friend tab

Everyone is My Friend
Owls
jjjddd

EAC#F#Bbe - i have absolutely no idea if the tuning is right, it just kind of
worked out this way from looking at hand placement and other bits of tab written for the song

intro part
e |---12----0----9\7p0-------------------|
Bb|--x---10------------3/6---------------|
F#|-x---------12------------5/7(\5)------|
C#|--------------------------------------|
A |--------------------------------------|
E |---------------------------------575--|
                                    ***
main riff
e |-0-------0---------------------------| 
Bb|---6---5---5-------------------------|
F#|-----5-------5-----0---5-------------|
C#|---------------5h7---7---7-----------|
A |-------------------------------------|
E |---------------------------7777-775--|
                              ***  **

modified version of the intro/verse
e |---12----0----9\7p0---00--------------------|
Bb|--x---10----------------5-------------------|
F#|-x---------12--------5-------0-5------------|
C#|--------------------------5h7-7-7-----------|
A |--------------------------------------------|
E |--------------------5-------------7777-775--|
                                     ***  **

the modified intro part is played several times during the second half of the song
havent wrote down when they come in, im sure if youre dedicated enough you can do it yourself

cant figure out the solos just yet, any suggestions are welcome
Tap to rate this tab
# A B C D E F G H I J K L M N O P Q R S T U V W X Y Z