Song name
# A B C D E F G H I J K L M N O P Q R S T U V W X Y Z

Owsley - Zavelow House tab

Tabbed by: Mike

h = hammer on
p = pull off
/ = slide up
\ = slide down
b = bend
~ = let ring


Intro
e-----------------------------------------------------|
B-----------------------------------------------------|
G-----------------------------------------------------|
D------------0-----------0-----------0-----------0----|
A-----------------------------------------------------|
E--7\-0--2-4---4-5---5-7---7\-0--2-4---4-5---5-7---7\-|

Verse
e---------------------------|
B---------------------------| x7
G---------------------------|
D---------0-----------0-----|
A---------------------------|
E--0--2-4---4-5---5-7---7\--|

the 8th time
e-----------------------|
B-----------------------|
G-----------------------|
D---------0-----------0-|
A-----------------------|
E--0--2-4---4-5-5-5-7---|

Pre-Chorus
e-----------------------------------------|
B------------------------6--6----66666666-|
G-----4--4----4--4-------4--4----44444444-|
D-----3--3----3--3-------6--6----66666666-|
A-----2--2----2--2---2-3-4--4----44444444-|
E-0-2-3--3----3--3------------------------|

Chorus
e------------------------------------|
B--2-222222-7-777777-----------------|
G--2-222222-7-777777-----------------|
D--4-444444-7-777777-7/99-9-7/99-9\7-|
A--4-444444-5-555555-7/99-9-7/99-9\7-|
E--2-222222----------5/77-7-5/77-7\5-|

e------------------------------|
B--2-222222-7-777777-----------|
G--2-222222-7-777777---------9-|
D--4-444444-7-777777-7/99-9--8-|
A--4-444444-5-555555-7/99-9-10-|
E--2-222222----------5/77-7--8-|

After chorus before second verse

e-------------------------------------------0000-000-|
B-------------------------------------------3333p202-|
G----------------------------------------------------|
D------------0-----------0-----------0---------------|
A----------------------------------------------------|
E--7\-0--2-4---4-5---5-7---7\-0--2-4---4-5-----------|

Play Verse again only the extra note thats on the 8th time
 is also on the 4th time in the second verse.

Then play the Pre-Chorus and Chorus again

Bridge:  guitar 1
e-------------------------------------|
B-------------------------------------|
G-------------------------------------|
D--9-96-699----7-74--477----9-96--699-|
A-------7------------5------------7---|
E-------------------------------------|

e--------------------------------------|
B--------------------------------------|
G--------------------------------11h14-|
D-/12\11-9\7-9h12----7--79-11h14-------|
A----------------9-----9---------------|
E--------------------------------------|

e---------------------------------------------------------------|
B---------------------------------------------------------------|
G---------------------------------------------------------------|
D-----11---14---11---11---/14-1414121012h1412p1012h1412p1012h14-|
A-12-----12---12---12--12---------------------------------------|
E---------------------------------------------------------------|

	guitar 2 - you can barely hear it in the background
                   so im not sure this is exactly right but it works.

  strum each of these for 2 bars |1 bar | half a bar each
e--0----------0-----------0------|-2----|--5----7--------|
B--0----------3-----------0------|-2----|--5----7--------|
G--6----------2-----------6------|-2----|--6----8--------|
D--7----------0-----------7------|-4----|--7----9--------|
A--0----------0-----------0------|-4----|--7----9--------|
E--------------------------------|-2----|--5----7--------|

  then these for 2 bars each
e--0----------0------|
B--3----------1------|
G--2----------2------|
D--0----------3------|
A--0----------3------|
E--------------------|

Solo - guitar 1 (guitar 2 plays the verse behind this)
e----------------------------------------|
B----------------------------------------|
G---9-9-9-9--9--9-9-9-9-999-9-99---------|
D--12121212p11-111111\9-999p7-77-/11-9---|
A-------------------------------------9b-|
E----------------------------------------|

e------------------------------------------------|
B------------------------------------------------| That end part im
G---9-9-9-9--9--9-9-9-9-99--------9--7-4-4-2-4-4-| not sure about cause
D--12121212p11-111111\9-99/11\9-7-9--7-6-4-2-4-6-| its hard 2 hear but
A------------------------------------------------| this works.
E------------------------------------------------|

play Pre-Chorus again

Final Chorus
e------------------------------------|
B--2-222222-7-777777-----------------| x3
G--2-222222-7-777777-----------------|
D--4-444444-7-777777-7/99-9-7/99-9\7-|
A--4-444444-5-555555-7/99-9-7/99-9\7-|
E--2-222222----------5/77-7-5/77-7\5-|

last time
e-------------------------------|
B--2-222222-7-777777------------|
G--2-222222-7-777777----------9-| strum last note for an extra bar
D--4-444444-7-777777-7-99\79--8-|
A--4-444444-5-555555-7-99\79-10-|
E--2-222222----------5-77\57--8-|

Outro - guitar 1
e-------------------------------------|
B-------------------------------------|
G-------------------------------------|
D--9-96-699----7-74--477----9-96--699-|
A-------7------------5------------7---|
E-------------------------------------|

e--------------------------------------|
B--------------------------------------|
G--------------------------------11h14-|
D-/12\11-9\7-9h12----7--79-11h14-------|
A----------------9-----9---------------|
E--------------------------------------|

e--------------------------------------------------------------|
B--------------------------------------------------------------|
G--------------------------------------------------------------|
D-----11---14---11---11---/14-14141210121412101214121012/1414~-|
A-12-----12---12---12--12--------------------------------------|
E--------------------------------------------------------------|

	guitar 2 - again not 100% sure about this

  2 bars  |  1 bar each |  2 bars  |1 bar | half a bar each
e--0------|----0-----0--|---0------|-2----|--5----7--------|
B--0------|----3-----1--|---0------|-2----|--5----7--------|
G--6------|----2-----2--|---6------|-2----|--6----8--------|
D--7------|----0-----3--|---7------|-4----|--7----9--------|
A--0------|----0-----3--|---0------|-4----|--7----9--------|
E---------|-------------|----------|-2----|--5----7--------|

  then these for 2 bars each
e--0----------0------|
B--3----------1------|
G--2----------2------|
D--0----------3------|
A--0----------3------|
E--------------------|

Ends on
e--0~--
B--0~--
G--9~--
D--9~--
A--7~--
E--0~--

There u have it. I dont know y Owsley never became popular
most of their songs kik ass.
Tap to rate this tab
 
# A B C D E F G H I J K L M N O P Q R S T U V W X Y Z