Song name
# A B C D E F G H I J K L M N O P Q R S T U V W X Y Z

Oxymoron - The Pigs tab

-------------------------------------------------------------------------------
			     The Pigs - Oxymoron
-------------------------------------------------------------------------------

Tuning:EADGBe

Intro
e|------------6-5-----|
B|-------6-8-------6-8|
G|-5-7----------------|
D|--------------------|
A|--------------------|
E|--------------------|

e|---------------------------------|
B|---------------------------------|
G|-77777777--3-5-7--77777777--3-5-3|
D|-77777777---------77777777-------|x2
A|-55555555---------55555555-------|
E|---------------------------------|

Verse
e|------------------------------------|
B|------------------------------------|
G|--7777777---------10101010----------|
D|--7777777-8888888-10101010-7777777--|
A|--5555555-8888888-8888888--7777777--|
E|----------6666666----------5555555--|

e|------------------------------------|
B|------------------------------------|
G|--7777777---------10101010----------|
D|--7777777-8888888-10101010-10101010-|x2
A|--5555555-8888888-8888888--10101010-|
E|----------6666666----------8888888--|

e|------------------------------------|
B|------------------------------------|
G|--7777777---------10101010----------|
D|--7777777-8888888-10101010-7777777--|
A|--5555555-8888888-8888888--7777777--|
E|----------6666666----------5555555--|


Chorus Rythm         PM-----------
e|----------------------------------|
B|----------------------------------|
G|-101010-1212121212----------------|
D|-101010-1212121212-101010-777777--|
A|-88888--1010101010-101010-777777--|
E|-------------------888888-555555--|

Chorus Lead
e|--------------|
B|--------------|
G|-10h12p10-9-7~|
D|--------------|
A|--------------|
E|--------------|

e|--------------------|
B|--------------------|
G|-14-13-12-10-12-9-10|
D|--------------------|
A|--------------------|
E|--------------------|

e|--------------|
B|--------------|
G|-10h12p10-9-7~|
D|--------------|
A|--------------|
E|--------------|

e|--------------------|
B|--------------------|
G|-14-14-14-6-10-10-7-|
D|--------------------|
A|--------------------|
E|--------------------|

VERSE
CHORUS

Bridge
e|---------------------------------------------------------|
B|---------------------------------------------------------|
G|-10-10-10h12p10-14-14-12h14p12-10-10-10h12p10------------|
D|----------------------------------------------12-12-12-12|
A|---------------------------------------------------------|
E|---------------------------------------------------------|

e|------------------------------------------------------------|
B|------------------------------------------------------------|
G|-10-10-10h12p10-14-14-14h14p12-10-10-------14---14-14-14-12-|
D|-------------------------------------12-12----12------------|
A|------------------------------------------------------------|
E|------------------------------------------------------------|

e|---------------------------------------------------------|
B|---------------------------------------------------------|
G|-10-10-10h12p10-14-14-12h14p12-10-10-10h12p10------------|
D|----------------------------------------------12-12-12-12|
A|---------------------------------------------------------|
E|---------------------------------------------------------|

e|---------------------------------------------------------|
B|---------------------------------------------------------|
G|-10-10-10h12p10-14-14-12h14p12-10-10-12b12b12b12b12b-----|
D|---------------------------------------------------------|
A|---------------------------------------------------------|
E|---------------------------------------------------------|

e|---------------------------------|
B|---------------------------------|
G|-77777777--3-5-7--55555555--3-5-7|
D|-77777777---------55555555-------|x2
A|-55555555---------33333333-------|
E|---------------------------------|

INTRO

VERSE w/ Lead
e|--------------|
B|--------------|
G|-10h12p10-9-7~|
D|--------------|
A|--------------|
E|--------------|

CHORUS

e|--------------------|
B|--------------------|
G|-14-14-14-6-10-10-7-|
D|--------------------|
A|--------------------|
E|--------------------|

e|--------------------|
B|--------------------|
G|-14-14-14-6-10-10-7-|
D|--------------------|
A|--------------------|
E|--------------------|

e|------------------|
B|------------------|
G|-14-14-14-6-10-10-|
D|------------------|x2
A|------------------|
E|------------------| 

e|--------------------|
B|--------------------|
G|-14-14-14-6-10-10-7-|
D|--------------------|
A|--------------------|
E|--------------------|


| /  slide up
| \  slide down
| h  hammer-on
| p  pull-off
| ~  vibrato
| +  harmonic
| x  Mute note
===============================================================================
Tap to rate this tab
# A B C D E F G H I J K L M N O P Q R S T U V W X Y Z