Song name
# A B C D E F G H I J K L M N O P Q R S T U V W X Y Z

Oxymoron - Bullet tab

                             OXYMORON
                              BULLET

STANDARD TUNING
EADBGe


--------------------------------------------|
--------------------------------------------|
---5----5---8-7-5---5----5---8-7-10---5-----|
---5----5---8-7-5-8-5----5---8-7-10-8-5-----|
---3----3---6-5-3-8-3----3---6-5--8-8-3-----|
------------------6-----------------6-------|


this is played later on
---------------|
---------------|
---8-10-5------|
---8-10-5------|
---6--8-3------|
---------------|


--------------------------------------------|
--------------------------------------------|
---5----5---8-7-5---5----5---8-7-10---5-----|
---5----5---8-7-5-8-5----5---8-7-10-8-5-----|
---3----3---6-5-3-8-3----3---6-5--8-8-3-----|
------------------6-----------------6-------|

thats it
peace
Tap to rate this tab
 
# A B C D E F G H I J K L M N O P Q R S T U V W X Y Z