Song name
# A B C D E F G H I J K L M N O P Q R S T U V W X Y Z

Oxymoron - Black Cats tab

Black Cats by Oxymoron

Tabbed by Holly Templeton

intro is a pick slide andddd here ya go...

Verse
e|----------------------------------------------------------------------------|
B|----------------------------------------------------------------------------|
G|----------------------------------------------------------------------------|
D|--9999-5555-7777-9-12-9-7-----X2----9999-12121212-7777-9-12-7-7-------------|
A|--9999-5555-7777-9-12-9-7-----------9999-12121212-7777-9-12-7-7-------------|
E|--7777-3333-5555-7-10-7-5-----------7777-10101010-5555-7-10-9-5-------------|

                           pre-chorus
e|----------------------|----------------------|
B|----------------------|----------7-----------|
G|----------------------|----4~6-7~-6-7-4-X2---|
D|--9999-5555-7777-999--|----------------------|
A|--9999-5555-7777-999--|----------------------|
E|--7777-3333-5555-777--|----------------------|


CHORUS
e|--------------------------------------------------------------------------|
B|--------------------------------------------------------------------------|
G|--99-------------99-------99----------------------------------------------|
D|--99-77-99-5-7-9-99-77-99-99----------------------------------------------|
A|--77-77-99-5-7-9-77-77-99-77----------------------------------------------|
E|-----55-77-3-5-7----55-77-------------------------------------------------|

Repeat Verse

Pre Chorus

Chorus

Bridge
No way in hell am I writing the entire bridge, it's just the one chord, listen to the 
for the rhythm.
e|-----|
B|-----|
G|-----|
D|-9---|
A|-9---|
E|-7---|

Solo

e|----------------------------121212---12--12--12--12-----------------------|
B|---------------------8-10-8-121212-12--12--12--12--12-121212-1212-12------|
G|-12-11-9-7-9-12-11-9------------------------------------------------12--9-|
D|--------------------------------------------------------------------------|
A|--------------------------------------------------------------------------|
E|--------------------------------------------------------------------------|
Note: the 2nd time you play the solo the 2nd 11 (F#) has a 12(G)  hammered on and off 
before the 9 (E)

Repeat Chorus

Repeat Solo

end on
e|-----------------------------------|
B|-----------------------------------|
G|-9---------------------------------|
D|-9---------------------------------|
A|-7---------------------------------|
E|-----------------------------------|
Tap to rate this tab
 
# A B C D E F G H I J K L M N O P Q R S T U V W X Y Z