Song name
# A B C D E F G H I J K L M N O P Q R S T U V W X Y Z

Oxymoron - Kamikaze tab

                             OXYMORON
                             KAMIKAZE

STANDARD TUNING
EADGBe


------------------------------------------------------|
------------------------------------------------------|
------------------------------------------------7-----|
---15-15/12--14-12-10--12-10-8--10-12------10-7---7---|
--------------------------------------12--------------|
------------------------------------------------------|


--------------------------------------|
--------------------------------------|
--------------------------------------|
--12--14-12-10--12-10-15--14-12-10----|
--------------------------------------|
--------------------------------------|


solo
---------------------------------------------------------------------------|
---------------------------------------------------------------------------|
---------------------------------------------------------------------------|
--12--14-15-14-12--14-15-14-12--14-15-17-15-14--15-17-15-14-15/12-14-15-14-|
---------------------------------------------------------------------------|
---------------------------------------------------------------------------|

----------------------------------------------------------------|
----------------------------------------------------------------|
----------------------------------------------------------------|
-12--14-15-14-12--14-15-17-15-14-17p15p14-17p15p14-17p15p14-----|
----------------------------------------------------------------|
----------------------------------------------------------------|


easy song
peace
Tap to rate this tab
 
# A B C D E F G H I J K L M N O P Q R S T U V W X Y Z