Song name
# A B C D E F G H I J K L M N O P Q R S T U V W X Y Z

Oxymoron - Drug Shock tab

                              OXYMORON
                             DRUG SHOCK

STANDARD TUNING
EADGBe


-----------------------------|
-----------------------------|
--3x3x3x5x5x5x3x3x3x5x5x5----|
--3x3x3x5x5x5x3x3x3x5x5x5----|
--1x1x1x3x3x3x1x1x1x3x3x3----|
-----------------------------|
repeat a few times then go into this

------------------|
------------------|
--3-3-3/5-5-5-----|
--3-3-3/5-5-5-----|
--1-1-1/3-3-3-----|
------------------|

------------------------------|
------------------------------|
---7777-5555-7777-10-12-10----|
---7777-5555-7777-10-12-10----|x4
---5555-3333-5555--8-10--8----|
------------------------------|

-------------------------------------------------------|
-------------------------------------------------------|
-------------------------------------------------------|
--5555-7777-8888-10101010-7777-8888-1010101010101010---|
--5555-7777-8888-10101010-7777-8888-1010101010101010---|
--3333-5555-6666--8-8-8-8-5555-6666--8-8-8-8-8-8-8-8---|

------------------------------|
------------------------------|
---7777-5555-7777-10-12-10----|
---7777-5555-7777-10-12-10----|x4
---5555-3333-5555--8-10--8----|
------------------------------|

------------------------------|
------------------------------|
--7-5-4h5-7-5-4h5-7-5-4h5-----|
------------------------------|x2
------------------------------|
------------------------------|


thats it
peace
Tap to rate this tab
# A B C D E F G H I J K L M N O P Q R S T U V W X Y Z