Song name
# A B C D E F G H I J K L M N O P Q R S T U V W X Y Z

Oxymoron - Foe tab

F.O.E
Oxymoron
Tabbed by Stratele (toz13hotmail.com)

Guitar 1: Lead (EADGBe)
Guitar 2: Rhythem (EADGBe)

This is my first tab ive done and im pritty sure its near 100% correct apart from the 
or the end lead. If you have any questions email me or comment.

INTRO - Guitar 1 -
(0.03)-(0.18)

|------------------------------------------||X3
|------------------------------------------||
|------------------------------------------||
|----------------------5-5-5h7p5---------5-||
|(5)-7-7-7-7p5-------------------5-5-5-5-5-||
|--------------7-7-7-7---------------------||
  ^
Only play first time

|--------------------------------------||
|--------------------------------------||
|------------------------------7-12-10-||
|--------------------5-5-5h7p5-7-12-10-||
|--7-7-7-7p5-------------------5-10-8--||
|------------7-7-7-7-------------------||

Guitar 2

|-------------------------------------------|| X3
|-------------------------------------------||
|9--9-9-9------------12--12-12-12--7--7-7-7-||
|9--9-9-9--9--9-9-9--12--12-12-12--7--7-7-7-||
|7--7-7-7--9--9-9-9--10--10-10-10--5--5-5-5-||
|----------7--7-7-7-------------------------||
 .  . .    .  . .    .   .  .      .  . .
P.M

|-------------------------------------------||
|-------------------------------------------||
|9--9-9-9------------12--12-12-12--7-12-10--||
|9--9-9-9--9--9-9-9--12--12-12-12--7-12-10--||
|7--7-7-7--9--9-9-9--10--10-10-10--5-10-8---||
|----------7--7-7-7-------------------------||
 .  . .    .  . .    .   .  .
P.M

VERSE - Guitar 1 & 2 -
(0.19) - (0.41)

|------------------------------------|----------------------------------------|| X3
|------------------------------------|----------------------------------------||
|9-9-9-9-9---------9-9-9-9-7-9-xxxxx-|-7-7-7-7-7--10-10-10-10--9-9-9-7-9-xxxxx||
|9-9-9-9-9--9-9-9--9-9-9-9-7-9-xxxxx-|-7-7-7-7-7--10-10-10-10--9-9-9-7-9-xxxxx||
|7-7-7-7-7--9-9-9--7-7-7-7-5-7-xxxxx-|-5-5-5-5-5--8--8--8--8---7-7-7-5-7-xxxxx||
|-----------7-7-7--------------------|----------------------------------------||

PRE CHORUS - Guitar 1 & 2 -
(0.42) - (0.48)

|--------------------------------------|---------------||
|--------------------------------------|---------------||
|7~---10~---9--9-9-9-9-7--9--9-9-9-9-7-|-7~------------||
|7~---10~---9--9-9-9-9-7--9--9-9-9-9-7-|-7~---10~---9~-||
|5~---8-~---7--7-7-7-7-5--7--7-7-7-7-5-|-5~---10~---9~-||
|--------------------------------------|------8-~---7~-||

CHORUS - Guitar 1 & 2 -
(0.49) - (1.03)

|-----------------------------|-----------------|| X3
|-----------------------------|-----------------||
|9--9-9-11--11-11-12-12-12-12-|-5-5-5-5-7-7-7-7-||
|9--9-9-11--11-11-12-12-12-12-|-5-5-5-5-7-7-7-7-||
|7--7-7-9---9--9--10-10-10-10-|-3-3-3-3-5-5-5-5-||
|-----------------------------|-----------------||

|-----------------------------|-----------------||
|-----------------------------|-----------------||
|9--9-9-11--11-11-12-12-12-12-|-7-7-7-7--9-9-9--||
|9--9-9-11--11-11-12-12-12-12-|-7-7-7-7--9-9-9--||
|7--7-7-9---9--9--10-10-10-10-|-5-5-5-5--7-7-7--||
|-----------------------------|-----------------||

BRAKEDOWN - Guitar 1 & 2 -
(1.04) - (1.11)

|--------------------------|-------------------------------||
|--------------------------|-------------------------------||
|--------------------------|-------------------------------||
|2-2-2-2-2-2-2-2-7-7-7-7-9-|-2-2-2-2-2-2-2-2-10-10-10-10-9-||
|2-2-2-2-2-2-2-2-7-7-7-7-9-|-2-2-2-2-2-2-2-2-10-10-10-10-9-||
|0-0-0-0-0-0-0-0-5-5-5-5-7-|-0-0-0-0-0-0-0-0-8--8--8--8--7-||

THEN PLAY THE VERSE AGAIN (1.12) - (1.25)
(but twice instead of 3 times)

THEN THE PRE CHORUS AGAIN  (1.26) - (1.32)
(On the last chord hit five more times in a Staccato)

THEN CHORUS AGAIN  (1.33) - (1.48)

BRAKEDOWN AGAIN (1.49) - (1.55)

SOLO (1.56) - (2.09)
Guitar two plays verse riff twice here and guitar one plays solo.
Listen to song for when you come in.

|3-------------|--------------------3-------------||
|--5p3h5p3-3-5~|-3-3-3h5p3------------5p3h5p3-3-5-||
|--------------|-----------5-5-5~-----------------||
|--------------|----------------------------------||
|--------------|----------------------------------||
|--------------|----------------------------------||

|------------------3-------------|---8-8-8-8-7-7-7-7--3-------------||
|5-5-5-5-------------5p3h5p3-3-5-|-5--------------------5p3h5p3-3-5-||
|--------4-4-4-4-----------------|----------------------------------||
|--------------------------------|----------------------------------||
|--------------------------------|----------------------------------||
|--------------------------------|----------------------------------||

BRAKEDOWN (2.10) - (2.17)
On the second part guitar one plays...

|-----------------------||
|3-3-3tr5--1-1-1tr3--0~~||
|-----------------------||
|-----------------------||
|-----------------------||
|-----------------------||

THEN CHORUS - (2.18) - (2.32)


OUTRO (SIMILAR TO CHORUS) - (2.33) - (FINISH)

GUITAR 1

|7---7---10---10---10---10---7---7---|| X3
|--5---5----8----8----7----7---5---5-||
|------------------------------------||
|------------------------------------||
|------------------------------------||
|------------------------------------||

|7---7---10-10-10-10-||
|--5---5-8--8--8--8--||
|--------------------||
|--------------------||
|--------------------||
|--------------------||

GUITAR 2 (NEALY SAME AS CHORUS APART FROM 2ND BAR)

|-----------------------------|-----------------|| X3
|-----------------------------|-----------------||
|9--9-9-11--11-11-12-12-12-12-|-7-7-7-7-9-9-9-9-||
|9--9-9-11--11-11-12-12-12-12-|-7-7-7-7-9-9-9-9-||
|7--7-7-9---9--9--10-10-10-10-|-5-5-5-5-7-7-7-7-||
|-----------------------------|-----------------||

|-----------------------------||
|-----------------------------||
|9--9-9-11--11-11-12-12-12-12-||
|9--9-9-11--11-11-12-12-12-12-||
|7--7-7-9---9--9--10-10-10-10-||
|-----------------------------||
Tap to rate this tab
 
# A B C D E F G H I J K L M N O P Q R S T U V W X Y Z