Song name
# A B C D E F G H I J K L M N O P Q R S T U V W X Y Z

Oysters - Flame Of Recca tab

Help us improve GuitareTab! Take a short survey!
Standard Tuning:EADGBE
Tabbed by:Antero Encontro II
email:antero_encontro_13@hotmail.com

Intro
 Guitar 1
---------------------------------------------------------|
-------------------------------------------10-8-6-8------|
-10----7------7------------10----------7-----------------|
----10---10-8---10-8-7--------10-10-10---8---------------|
-----------------------10--------------------------------|
---------------------------------------------------------|

-----------------------------------------------------------|
-------------------------------------------------10-8-6-8--|
-10-----------7-------------------10----------7------------|
----10-10-10----10-8--10-8-7---------10-10-10---8----------|
-----------------------------10----------------------------|
-----------------------------------------------------------|

-------------------------|
-------------------------|
-10-----------7----------|
----10-10-10----10-8-10--|
-------------------------|
-------------------------|
Related for Flame Of Recca tab