Song name
# A B C D E F G H I J K L M N O P Q R S T U V W X Y Z

Ozlem Tekin - Bu Kalp tab

Özlem Tekin - Bu Kalp

Album: Laubali

Söz-Müzik: Hakan Tunçkıran 



Intro : 
 
   E |-------------------------------------|
   B |-------------------------------------| 
   G |---4--4h5-4-2--0---0-2---------------|  
   D |-2---------------4------0------------|
   A |-------------------------------------|
   E |-------------------------------------|
                                                                              
   E |------------------------------------------|
   B |------------------------------------------|                
   G |---4--4h5-4-2-0---0-2-----------7-5-4-5---|
   D |-2--------------4-------------------------|
   A |---------------------------5--------------|
   E |------------------------------------------|
   
           
 
   Em      G        D
   Bu kalp ağırdır, her zaman taşıyamazsın
   Em      G        D
   Bu kalp anlatır, her zaman duyamazsın
   Em      G        D
   Bu kalp ağlatır, her zaman ağlayamazsın
   Em      G        D                   Bm
   Bu kalp anlatır, hiçbir zaman duymazsın
 
   (G    Am   Bm Em   ) 2
   (Voh, voh, vo-oh...) 
 
   
   Em-G-D             Em-G-D
   Bu kalp ağırdır, bu kalp...
   Em-G-D             Em-G-D
   Bu kalp ağırdır, bu kalp...
   Em-G-D             Em-G-D
   Bu kalp ağırdır, bu kalp...
 
   
       Taşıyamazsın...


   E |------------------------------------|
   B |------------------------------------| 
   G |---4--4h5-4-2--0---0-2--------------|  
   D |-2---------------4-----0------------|
   A |------------------------------------|
   E |------------------------------------|
                                                                              (2 kere)
   E |----------------------------------------|
   B |----------------------------------------|                
   G |---4--4h5-4-2-0---0-2--------7-5-4-5----|
   D |-2--------------4-----------------------|
   A |------------------------5---------------|
   E |----------------------------------------|


    h: hammer on
Tap to rate this tab
# A B C D E F G H I J K L M N O P Q R S T U V W X Y Z