Song name
# A B C D E F G H I J K L M N O P Q R S T U V W X Y Z

Ozma - Tetris Theme tab

Intro:
e|-------------------------|
B|-------------------------|
G|-------------------------|
D|-------------------------|
A|--6-9----1-4-------------|
E|------7~-----2~-4-6-7~---|

Interlude:

guitar one
e|-------------------------------------------------------------------------|
B|-------------------------------------------------------------------------|
G|44444444666666667777777788888888888888889999999910101010101010101212121212
D|xxxxxxxxxxxxxxxxxxxxxxxxxxxxxxxxxxxxxxxxxxxxxxxxx-x-x-x-x-x-x-x-x-x-x-x-x|
A|2222222244444444555555556666666666666666777777778-8-8-8-8-8-8-8-1010101010
E|-------------------------------------------------------------------------|

e|----------------------------------|
B|-----------------------------9-8~-|
G|--8---6---4---3~-8---6---4-8------|
D|----9---8---6------9---8----------|
A|----------------------------------|
E|----------------------------------|

Solo:

(can't figure out guitar two)
e|-------------------------------------------------|
B|-------------------------------------------------|
G|--8--------------------8----------------8--------|
D|----8-9-11--9-8-6--6-9----11-9-8-8h9-11---9-6-6~-|
A|-------------------------------------------------|
E|-------------------------------------------------|

e|-------------------------------------------------|
B|------9-7----------------------------------------|
G|--6-9-----9-8---8---------------8----------------|
D|--------------9---11-9-8-8h9-11---9-6-6~---------|x2
A|-------------------------------------------------|
E|-------------------------------------------------|

Interlude:

guitar one
e|-------------------------------------------------------------------------|
B|-------------------------------------------------------------------------|
G|44444444666666667777777788888888888888889999999910101010101010101111111111
D|xxxxxxxxxxxxxxxxxxxxxxxxxxxxxxxxxxxxxxxxxxxxxxxxx-x-x-x-x-x-x-x-x-x-x-x-x|
A|2222222244444444555555556666666666666666777777778-8-8-8-8-8-8-8-9-9-9-9-9|
E|-------------------------------------------------------------------------|

Guitar two
e|----------------------------------|
B|-----------------------------9-8~-|
G|--8---6---4---3~-8---6---4-8------|
D|----9---8---6------9---8----------|
A|----------------------------------|
E|----------------------------------|

Solo:
e|-------------------------------------------------|
B|-------------------------------------------------|
G|--8--------------------8----------------8--------|
D|----8-9-11--9-8-6--6-9----11-9-8-8h9-11---9-6-6~-|
A|-------------------------------------------------|
E|-------------------------------------------------|

e|-------------------------------------------------|
B|------9-7----------------------------------------|
G|--6-9-----9-8---8---------------8----------------|
D|--------------9---11-9-8-8h9-11---9-6-6~---------|x2
A|-------------------------------------------------|
E|-------------------------------------------------|

Bridge:
e|--------------------------------------------------------------------|
B|--------------------------------------------------------------------|
G|--------------------------------------------------------------------|
D|-9-------9-8-9-8-6-5----6-4-----9-------9-8-9-8-6-5------5-6~-------|
A|---11----------------6------6~----11----------------6--8------------|
E|------11-----------------------------11-----------------------------|

Interlude:

guitar one
e|-------------------------------------------------------------------------|
B|-------------------------------------------------------------------------|
G|44444444666666667777777788888888888888889999999910101010101010101111111111
D|xxxxxxxxxxxxxxxxxxxxxxxxxxxxxxxxxxxxxxxxxxxxxxxxx-x-x-x-x-x-x-x-x-x-x-x-x|
A|2222222244444444555555556666666666666666777777778-8-8-8-8-8-8-8-9-9-9-9-9|
E|-------------------------------------------------------------------------|

Guitar two
e|----------------------------------|
B|-----------------------------9-8~-|
G|--8---6---4---3~-8---6---4-8------|
D|----9---8---6------9---8----------|
A|----------------------------------|
E|----------------------------------|

Solo:
e|-------------------------------------------------|
B|-------------------------------------------------|
G|--8--------------------8----------------8--------|
D|----8-9-11--9-8-6--6-9----11-9-8-8h9-11---9-6-6~-|
A|-------------------------------------------------|
E|-------------------------------------------------|

e|-------------------------------------------------|
B|------9-7----------------------------------------|
G|--6-9-----9-8---8---------------8----------------|
D|--------------9---11-9-8-8h9-11---9-6-6~---------|x2
A|-------------------------------------------------|
E|-------------------------------------------------|

Outro:
e|-------------------------------------------------|
B|-------------------------------------------------|
G|--8----------------------------------------------|
D|----8-9-11--9-8-6~--6-9-11/13~---15~-------------|
A|-------------------------------------------------|
E|-------------------------------------------------|

(this part doesnt sound quite right...sorry)
e|-------------------------------------------------|
B|-------------------------------------------------|
G|-8-8-----9-9----------13-14-11-9-8-9-------------|
D|-----9-6-----11-8--------------------6-6~--------|
A|-------------------------------------------------|
E|-------------------------------------------------|

Tap to rate this tab
# A B C D E F G H I J K L M N O P Q R S T U V W X Y Z