Guitaretab - guitar tabs
Song name
# A B C D E F G H I J K L M N O P Q R S T U V W X Y Z
Home / O / Ozma / Rocks tab

Ozma - Rocks tab

#----------------------------------PLEASE NOTE---------------------------------#
#This file is the author's own work and represents their interpretation of the #
#song. You may only use this file for private study, scholarship, or research. #
#------------------------------------------------------------------------------##
Tabbed By: Michelle G. CyberPunk5k
Band:      OZMA
Song:      Rocks
Album:     Rock and Roll Part Three



Intro/Keys:
(Tabbed for the guitar)
||-10--------------------10------------10----------------------||
||---12-10----10-12-10-----12-10---------12-10--10-12-10-------||
||*--------12---------12--------12-9----------12--------12-12-*||
||*---------------------------------12------------------------*||
||-------------------------------------------------------------||
||-------------------------------------------------------------||

Riff 1:
||-----------------------||
||-----------------------||
||*---------------------*||Repeat 16x
||*------4-6------------*||2nd time, Repeat 8x
||--4-4--2-4-------------||3rd time, Repeat 16x
||--2-2------------------||

Riff 2: 
||-----------------------------------------------||
||-----------------------------------------------||
||----------------------------------------------*||
||------------4-4-4-4-4--6-6-6-6-6-4-4-4-4-4----*||x2
||-4-4-4-4-4--2-2-2-2-2--4-4-4-4-4-2-2-2-2-2-----||
||-2-2-2-2-2-------------------------------------||
[ Tab from: http://www.guitaretab.com/o/ozma/28557.html ]
Solo:
||-0-0-2-3-2-2-3-5-3-3-5-7-5-7-10-7-10-12-12--12-14-15-14h15p14p12-\
||-----------------------------------------------------------------/
||-----------------------------------------------------------------\
||-----------------------------------------------------------------/
||-----------------------------------------------------------------\
||-----------------------------------------------------------------/

	\---17-15-14-15-17-14------12-14-14h15-14-12--12---------\
	/-15-----------------15-12------------------15-----------/
	\-----------------------------------------------15-14-12-\
	/--------------------------------------------------------/
	\--------------------------------------------------------\
	/--------------------------------------------------------/

	\-----------14----------14----------14-----------------\
	/-----15----------15----------15------15-17-15---------/
	\---12----12----12----12----12----12----------15p14p12-\
	/-14----14----14----14----14----14---------------------/
	\------------------------------------------------------\
	/------------------------------------------------------/

	\-----------14-14h15-14-12--12-----------------------------\
	/-----15------------------15---------------------12-15-12-/
	\---12----12-----------------14^-14^-14p12---12-14---------\
	/-14----14---------------------------------14--------------/
	\----------------------------------------------------------\
	/----------------------------------------------------------/

	\----------------12-12-2-12-15-14-12---12-15-14-12--------------||
	/--------------15--------------------12------------12-11-12-11\-||
	\-14-12--12-14--------------------------------------------------||
	/------14-------------------------------------------------------||
	\---------------------------------------------------------------||
	/---------------------------------------------------------------||
Related for Rocks tab