Song name
# A B C D E F G H I J K L M N O P Q R S T U V W X Y Z

Ozma - Battle Scars tab

-----------------------------------------------------------------|
---------9-9--7-7--6-6--4-4-4------------6-6--7-6-4-4------------|
-------------------------------6-5-------------------------------|
------------------------------------6-6--------------------------|
-----------------------------------------------------------------|
-----------------------------------------------------------------|

-----------------------------------------------------------------|
---------9-9--7-7--6-6--4-4-4------------6-6--7-6-4-4------------|
-------------------------------6-5---------------------6-5-------|
------------------------------------6-6--------------------6-6s8-|
-----------------------------------------------------------------|
-----------------------------------------------------------------|
Tap to rate this tab
 
# A B C D E F G H I J K L M N O P Q R S T U V W X Y Z