Song name
# A B C D E F G H I J K L M N O P Q R S T U V W X Y Z

Ozma - Natalie Portman tab

Artist : Ozma
Song   : Natalie Portman
Album  : Rock and Roll Part Three

Tuning: Half Step Down E
Tablature by: Farzan Karimi (karimifarzan@yahoo.com)

Verse:

e|-----------1----2---| |
B|-2----0----2----3---| |
G|-2----1----1----2---|2|
D|-2----2----3--------|x|
A|-0----2-------------| |
E|--------------------| |


Chorus:
"Maybe She's alone..."

e|-2----------2--------2---------2-|
B|-2----------3--------2---------3-|
G|-2----------2--------2---------2-|
D|-4-------------------4-----------|
A|-4-------------------4-----------|
E|-2-------------------2-----------|

"What can I do?..."

e|-2--------------1---|
B|-3--------------3---|
G|-2--------------2---|
D|--------------------|
A|--------------------|
E|--------------------|

"There's nothing..."

e|----------------------1------2-|
B|-------2--------------2------3-|
G|-------2--------2-----1------2-|
D|-------2--------2-----3--------|
A|-------0--------4--------------|
E|-------------------------------|


Solo:

e-------9--99-9---------------------------------------|
B-10h12---------12-10-12/14--12--12--10-10-9-9^-7-6-5-|
G-----------------------------------------------------|
D-----------------------------------------------------|
A-----------------------------------------------------|
E-----------------------------------------------------|

e------5h7-7h8-9---7--12----14-12----------|
B--5h7-------------------10-------10h12-14-|
G------------------------------------------|
D------------------------------------------|
A------------------------------------------|
E------------------------------------------|


Outro:
Heavy Distortion
e---------------|
B---------------|
G-2---4---6---7-|
D-2---4---6---7-|
A-0---2---4---5-|
E---------------|
Tap to rate this tab
# A B C D E F G H I J K L M N O P Q R S T U V W X Y Z