Song name
# A B C D E F G H I J K L M N O P Q R S T U V W X Y Z

Ozma - Rain Of The Golden Gorilla Acoustic tab

Help us improve GuitareTab! Take a short survey!
Transcribed by: paolo.c
It sounds right but i'm missing some parts
other than that, enjoy playing this song.

-=OZMA=- 

EB TUNING

VERSE:1 & 2

strumming sequence
 
 G   Dsus2  C    E    Bm
e-3-3--0-0--0-0--0-0--0---0-0--------
B-0-0--3-3--1-1--0-0--3---3-3--------
G-0-0--2-2--0-0--1-1--4---4-4--------
D-0-0--0-0--2-2--2-2--4---4-4--------
A-2-2--0-0--3-3--2-2--2---2-2--------
E-3-3--0-0--x-x--0-0--0---0-0--------

chorus: melody
guitar 1
e------------------------------------
B------------------------------------
G---0-----5-4-0---5-4-0---5-4--------
D-----4-5-------4-------4------------  x2
A------------------------------------
E------------------------------------

guitar 2 
strum with melody using:

G(3rd fret) and B --- x2 
e-0-        -0-
B-0-        -4-
G-4-        -4-
D-5-        -4-
A-5-        -2-
E-3-        -0-
Related for Rain Of The Golden Gorilla Acoustic tab