Song name
# A B C D E F G H I J K L M N O P Q R S T U V W X Y Z

Ozma - Landing Of Yuri Gagarin tab

#-----------------------------------------------------------------------------#
#-- File created with Instab - http://www.pconline.com/~smcarey/instab.html --#
#-----------------------------------------------------------------------------#

Author/Artist: Ozma
Title: Landing of Yuri Gagarin
Album: ddd
Transcribed by: Mike Ivanco (enthused)
Email: fentoozer68@hotmail.com

thats about it
the solo part goes higher but its in the same pattern you can figure that out for yourself

------------------------------------------------------------------------------|
------------------------------------------------------------------------------|
---4-5-7----------------------------------------------------------------------|
-2-4-5-7-5--------------------------------------------------------------------|
-2-2-3-5-5--------------------------------------------------------------------|
-0-------3--------------------------------------------------------------------|
 rhythm intro

-7p5h7p5--5-7-----------------------------------------------------------------|
--------8-----7h8p7-5-4---5p4h5-7p5h7p5-3h5p3-1-0-----------------------------|
------------------------4-----------------------------------------------------|
------------------------------------------------------------------------------|
------------------------------------------------------------------------------|
------------------------------------------------------------------------------|
  keyboard intro
Tap to rate this tab
# A B C D E F G H I J K L M N O P Q R S T U V W X Y Z