Song name
# A B C D E F G H I J K L M N O P Q R S T U V W X Y Z

Ozma - Tetris tab

Stephen McCann

Tetris Guitar

* 1

---------------------------------------------------------------|
--/12-------------------------12-------------------12----------|
------11-12-14-12-11-------12----14-12-11-11-12-14----12-------|
---------------------14-14-------------------------------14-14-|
---------------------------------------------------------------|
---------------------------------------------------------------|

---------12----------------------------------------------|
------13----15-13-12----12-------------------12----------|
--/14----------------12----14-12-11-11-12-14----12-------|
---------------------------------------------------14-14-|
---------------------------------------------------------|
---------------------------------------------------------|


* 2
-----------------------------------------------12-11-|
--/12-----------------------/12-------------12-------|
------12-14-11-12----11---------12-14-11-12----------|
------------------14----12---------------------------|
-----------------------------------------------------|
-----------------------------------------------------|

repeat * 1

thanks. stephen
Tap to rate this tab
 
# A B C D E F G H I J K L M N O P Q R S T U V W X Y Z