Song name
# A B C D E F G H I J K L M N O P Q R S T U V W X Y Z

Ozma - If I Only Had A Heart tab

Standard Tuning

e----------------------|
B---------------12*----|
G---------------12*----|
D-----------4---12*----|
A--------2-------------|
E--0--3----------------|

line played on lead guitar
as intro melody.

e-----------10-------------------10------------------|
B---12--10-----12--10----12--10-----12-13-12---------|
G----------------------9---------------------12------|
D----------------------------------------------------|
A----------------------------------------------------|
E----------------------------------------------------|

e-----------10-------------------10------------------|
B---12--10-----12--10----12--10-----12-h13-12--------|
G----------------------9----------------------12-----|
D----------------------------------------------------|
A----------------------------------------------------|
E----------------------------------------------------|

verse 1 chords:

G           E-        A- **              C
i'd give my heart if you'd give your attention
G           E-        A- **              C
but when i look there's just an open trench (and baby)
B                C              D                             G    A
i can't stand to see you, girl, showing off your silver party dress
B                C              D                             G    A    E-
no, you can't come over now the house ain't neat my room's a mess


** - guitars strum melody over the A- and C chords:
e-----------3--0--0----------|
B--0--3--1--1--0--0--0-------|
G-----2--2--2--2--0--2-------|
D-----2--2--2--2--2--0-------|
A-----0--0--0--0--3--3-------|
E----------------------------|

(repeat 2nd half of guitar solo section)
(repeat for verse 2)


instrumental section chords:
E / F#- / G / A / B
F#- / G / A / B / C
G / A / B / C / D
A / B / C / D


melody line played on lead guitar
over the instrumental section is same as intro melody.

e-----------10-------------------10------------------|
B---12--10-----12--10----12--10-----12-h13-12--------|
G----------------------9----------------------12-----|
D----------------------------------------------------|
A----------------------------------------------------|
E----------------------------------------------------|

repeat verse chords for "i'd give my heart" section.

Outro
e-----------3--0--0----------|
B--0--3--1--1--0--0--0-------|
G-----2--2--2--2--0--2-------|
D-----2--2--2--2--2--0-------|
A-----0--0--0--0--3--3-------|
E----------------------------|
Tap to rate this tab
 
# A B C D E F G H I J K L M N O P Q R S T U V W X Y Z