Song name
# A B C D E F G H I J K L M N O P Q R S T U V W X Y Z

Ozma - Domino Effect Acoustic tab

OZMA
Domino Effect (acoustic)
Tabbed by Mike A


This is from the acoustic track after Battlescars on RRP3... listen to the album for the 
because i dont want to take the time to write that out

tuned down to eb (duh)

e:------------------------------------------------------------------------|
B:--2--0---------------2----2-----3--0----0---------------0--0----2-------|
G:--------2--------2-------------------------2----------1-----------2-----|
D:-----------2----------------------------------2-------------------------|
A:--0-----------0--------------2-------------------2-----------0----------|
E:----------------------------------------0-----------0----------------4--|


e:-----------2----------------------------------------------------|
B:--------2-------------------------------------------------------|
G:-----2---------9-9-7-7-6--------------7---7-7-6-6-5-6-----------|
D:--------------------------6-------6-9---------------------------|
A:-------------------------------------------0--------------------|
E:--2--------------0-------------0----------------------0---------|


e:------------------------------------------------------------------------|
B:--2--0---------------2----2-----3--0----0---------------0--0----2-------|
G:--------2--------2-------------------------2----------1-----------2-----|
D:-----------2----------------------------------2-------------------------|
A:--0-----------0--------------2-------------------2-----------0----------|
E:----------------------------------------0-----------0----------------4--|


e:-----------2---------------------------------------------------|
B:--------2------------------------------7-------3-2-2-1-2-------|
G:-----2---------9-9-7-7-6----------4-7--7--7----4-2-2-1-2-------|
D:-----------4--------------9-------6-9-----9--------------------|
A:--------------------------7--------------------0----------4----|
E:--2--------------0-------------0-------------------------------|


e:-----------------------------------------------------------------------------------------|
B:----------------------------------------------3--------------------------------2---------|
G:-------------------------------6----------------4-3-4------------4---------------2-1-2---|
D:--7--9--6-----3--4-6-7----6--4--------------------------------2-----3--------------------|
A:--5-----7--8--4--6-8-9--7----5---4--------------------------2-4--------------------------|
E:-----------------------------------7-5-4-2-0------------2-4-----------4-2-1-2------------|

e:------------------------------||
B:------------------------------||
G:------------------------------||
D:--6-4---2-0-------------------||
A:----5-----2--4--2-------------||
E:----------------0-------------||


if there are any mistakes... tough. you can fix them if you want. but there shouldn't be.
Tap to rate this tab
# A B C D E F G H I J K L M N O P Q R S T U V W X Y Z