Guitaretab - guitar tabs
Song name
# A B C D E F G H I J K L M N O P Q R S T U V W X Y Z

Ozric Tentacles - Become The Other tab

Ozric Tentacles- Become The Other- Intro/main riff and Bridge riff.

Tabbed By 21stCenturyKid
Email: steven_brown76@hotmail.com
Tuning: EADGBE

Riff A

---------------------------------------------| ----------------------------|
---------------------------------------------| ----------------------------|
---------------------------------------------| x3 ----9--------------------|
-----5--------------8---------------11-------|   ---7---7-----9-------12---|
---3--3----------6---6------------9----------|   -5---------7---7---10-----|
-1------------/-4-------------/-7------------|   ---------5-------/8-------|

Riff B


--------------------------------------| -----------------------------------|
--------------------------------------| -----------------------------------|
--------------------------------------| x3----10---------------------------|
------6-------------9------------12---|  ---8----8-------10------------12--|
----4--4---------7---7--------10------|  -6-----------8------8-----11------|
--2-----------/-5--------/--8---------|  -----------6-----------/9---------|


Repeat as necessary (around 4 each) alternate between clean and distorted sounds with
of echo/delay and chorus/flanger effects)
[ Tab from: http://www.guitaretab.com/o/ozric-tentacles/70825.html ]
Bridge riff on bass and guitar

-----------------------------------------------------------------------------|
-----------------------------------------------------------------------------|
-----------------------------------------------------------------------------|part A
--------------------------------------------------8-10-----------------------|
-------------------------6-------------------6-8--------8-10-----------------|
------6-8-8-8---6-8-9-----6-8-8-8---6-8-9----------------------9-11----------|


----------------------------------------------------------------------------|
----------------------------------------------------------------------------|
----------------------------------------------------------------------------|
---------------------------------------------------8-10---------------------|part B
------------------6-8---------------------6-8-/10--------8-10---------------|
----6-9-9-9--6-9------6-9-9-9--6-9---------------------------9--11----------|
Use vibrato on the sustained notes. but mostly vibrato is just played wherever its
naturally within the song to add effect.

Repeat A about 10 or more times and then do the same for part B
Then go back to riffs one and two for however many bars it is then solo comes in

Have fun!!
Related for Become The Other tab
×
Best way to learn
"Become The Other"