Song name
# A B C D E F G H I J K L M N O P Q R S T U V W X Y Z

Ozzy Osbourne - Trap Door tab

This is just the intro i'll try the rest later..


--------------------------------------------------------------------------|
--------------------------------------------------------------------------|
--------------------------------------------------------------------------|
---7--8--7--0---12-------10-------12-------8-------7--8--7--0--12---------|
---7--8--7--0---12-------10-------12-------8-------7--8--7--0--12---------|
---7--8--7--0---12--0-0--10--0-0--12--0-0--8--0-0--7--8--7--0--12--0-0----|

--------------------------------------------------------------------------|
--------------------------------------------------------------------------|
--------------------------------------------------------------------------|
-10-------12-------8-------7--8--7--0-----5--3--0--6--5--0--3--5--0--6----|
-10-------12-------8-------7--8--7--0-----5--3--0--6--5--0--3--5--0--6----|
-10--0-0--12--0-0--8--0-0--7--8--7--0-----5--3--0--6--5--0--3--5--0--6----|

--------------------------|
--------------------------|
--------------------------|
-5--0--3--5--3--0---------|
-5--0--3--5--3--0---------|
-5--0--3--5--3--0---------|
Tap to rate this tab
# A B C D E F G H I J K L M N O P Q R S T U V W X Y Z