Guitaretab - guitar tabs
Song name
# A B C D E F G H I J K L M N O P Q R S T U V W X Y Z

Ozzy Osbourne - Paranoid Live tab

			 Paranoid - ozzy osbourne live with randy rhoads

Tabbed by: #1 led zep fan
Email: rexmac@mntarea.net

Tuning: standard
 Listen to the song for the timing I tabbed it out as best as I could this is my first
so take it easy. I dont really use my email so just post any corrections on my page. Im
including the time when stuff happens so you dont get lost because that happens to me 
the time.

	0:07-0:17
e|---------------------------------------------------------------------|
B|---------------------------------------------------------------------|
G|---------------------------------------------------------------------|
D|------------------------------12h14-------12h14----------------------|
A|---12h14-12h14-12h14-12h14-------12h14----------------------------|
E|---12-----12-----12--------------------------------------------------|
 Repeat that times 4
	0:18-0:23	     xxxxxxxxxxxxxxxxxxxx
e|---------------------------------------------------------------------|
B|---------------------------------------------------------------------|
G|----------------------------------------------------------12h13p12---|
D|---------------------12h14-----------------------12------------------|
A|##14-##14-##1412h14-------12121212121212121212--10-12-14------------|
E|##12-##12-##12-------------10101010101010101010-----10-12------------|
  This part is kinda weird you place your index finger over the 12th fret low E string
the fret divider or whatever its called and your pinky over the 14th fret A string. Dont
down. Let your fingers rest on the string. Like a damp note without the palm muting. 
the symbol Im using for that #. So in case you didnt understand its  natural
 weird damp note thing I described earlier if you dont understand post it on my page 
ill send you a vid.
	0:24-0:32             xxxxxxxxxxxxxxxxxxx
e|---------------------------------------------------------------------|
B|---------------------------------------------------------------------|
G|---------------------------------------------------------------------|
D|---------------------12h14-----------------------12------------7-9---|
A|##14-##14-##1412h14-------12121212121212121212--10-12-14---9b5-7---|
E|##12-##12-##12-------------10101010101010101010-----10-12---9b-------|

	0:33-0:40
e|--------?------------------------------------------------------------|
B|--------?------------------------------------------------------------|
G|--------?------------------------------------------------------------|
D|--------?------------7--9--------------------------------------------|
A|--9b----?---9b-------5--7-9b----------------------------------------|
E|--9b----?---9b-7\0---------9b--15\\0--------------------------------|
  At 0:34 there is a pinch harmonic screechy thing but Im not sure what it is. Heres
symbol for that.?

	0:41-0:46            xxxxxxxxxxxxxxxxxxxx
e|---------------------------------------------------------------------|
B|---------------------------------------------------------------------|
G|-----------------------------------------------------------7h9-------|
D|---------------------12h14-----------------------12--------7---------|
A|##14-##14-##1412h14-------12121212121212121212--10-12-14------------|
E|##12-##12-##12-------------10101010101010101010-----10-12------------|

	0:47-0:51             xxxxxxxxxxxxxxxxxxx
e|---------------------------------------------------------------------|
B|---------------------------------------------------------------------|
G|---------------------------------------------------------------------|
D|---------------------12h14-----------------------12------------------|
A|##14-##14-##1412h14-------12121212121212121212--10-12-14------------|
E|##12-##12-##12-------------10101010101010101010-----10-12------------|
	0:52-1:01
e|---------------------------------------------------------------------|
B|-----------15~-------------------------------------------------------|
G|---------------------------------------------------------------------|
D|---------------------------------------------------------------------|
A|----12/14-------14\12---12/149tr10---14\12--------------------------|
E|----10/12-------12\10---10/12---------12\10--------------------------|
	1:02-1:08             xx xx xx xx xx xx
e|---------------------------------------------------------------------|
B|-----------------------------------------------------------12~-------|
G|---------------------------------------------------------------------|
D|---------------------12h14-----------------------12------------------|
A|##14-##14-##1412h14-------12121212121212121212--10-12-14------------|
E|##12-##12-##12-------------10101010101010101010-----10-12------------|

	1:09-1:14             xx xx xx xx xx xx
e|---------------------------------------------------------------------|
B|----------------------------------------------------------12h13p12---|
G|---------------------------------------------------------------------|
D|---------------------12h14-----------------------12------------------|
A|##14-##14-##1412h14-------12121212121212121212--10-12-14------------|
E|##12-##12-##12-------------10101010101010101010-----10-12------------|
[ Tab from: http://www.guitaretab.com/o/ozzy-osbourne/113970.html ]
	1:15-1:19             xxxxxxxxxxxxxxxxxxx
e|----------------------------------------------------------------------|
B|----------------------------------------------------------------------|
G|----------------------------------------------------------------------|
D|---------------------12h14-----------------------12-------------------|
A|##14-##14-##1412h14-------12121212121212121212--10-12-1414\12s------|
E|##12-##12-##12-------------10101010101010101010-----10-1212\10s------|


	1:20-1:25             xxxxxxxxxxxxxxxxxxx
e|---------------------------------------------------------------------|
B|---------------------------------------------------------------------|
G|---------------------------------------------------------------------|
D|---------------------12h14-----------------------12------------------|
A|##14-##14-##1412h14-------12121212121212121212--10-12-14------------|
E|##12-##12-##12-------------10101010101010101010-----10-12------------|

1:26-1:46 one of the best solos Ive ever heard and it is a total shame I dont have the
to tab it for you. I know that sucks and is probably the whole reason you looked at
tab. sorry please forgive me; heres the rest of the tab.


	1:47-1:53             xx xx xx xx xx xx
e|---------------------------------------------------------------------|
B|---------------------------------------------------------------------|
G|---------------------------------------------------------------------|
D|---------------------12h14-----------------------12------------------|
A|##14-##14-##1412h14-------12121212121212121212--10-12-14------------|
E|##12-##12-##12-------------10101010101010101010-----10-12------------|

	1:54-1:58             xx xx xx xx xx xx
e|---------------------------------------------------------------------|
B|---------------------------------------------------------------------|
G|-------------------------------------------------12------------------|
D|---------------------12h14-----------------------10-12-14------------|
A|##14-##14-##1412h14-------12121212121212121212-----10-12------------|
E|##12-##12-##12-------------10101010101010101010----------------------|

	1:59-2:04             xxxxxxxxxxxxxxxxxxx
e|---------------------------------------------------------------------|
B|------------------------------------------------------------19b20----|
G|---------------------------------------------------------------------|
D|---------------------12h14-----------------------12------------------|
A|##14-##14-##1412h14-------12121212121212121212--10-12-14------------|
E|##12-##12-##12-------------10101010101010101010-----10-12------------|

	2:05-2:09             xxxxxxxxxxxxxxxxxxx
e|---------------------------------------------------------------------|
B|---------------------------------------------------------------------|
G|---------------------------------------------------------------------|
D|---------------------12h14-----------------------12------------------|
A|##14-##14-##1412h14-------12121212121212121212--10-12-14------------|
E|##12-##12-##12-------------10101010101010101010-----10-12------------|
	2:10-2:16
e|---------------------------------------------------------------------|
B|-----------------19b20-19b20-19b20-----------------------------------|
G|---------------------------------------------------------------------|
D|------7--9-----------------------------------------------------------|
A|-9b---5--7---9b------------------------------------------------------|
E|-9b----------9b------------------------------------------------------|

	2:17-2:21
e|---------------------------------------------------------------------|
B|---------------------------------------------------------------------|
G|---------------------------------------------------------------------|
D|------7--9-----------------------------------------------------------|
A|-9b---5--7---9b---2//14b17-------------------------------------------|
E|-9b----------9b------------------------------------------------------|

	2:22-2:27             xx xx xx xx xx xx
e|---------------------------------------------------------------------|
B|----------------------------------------------------------12h13p12---|
G|---------------------------------------------------------------------|
D|---------------------12h14-----------------------12------------------|
A|##14-##14-##1412h14-------12121212121212121212--10-12-14------------|
E|##12-##12-##12-------------10101010101010101010-----10-12------------|


	2:28-2:32             xx xx xx xx xx xx
e|---------------------------------------------------------------------|
B|---------------------------------------------------------------------|
G|---------------------------------------------------------------------|
D|---------------------12h14-----------------------12------------------|
A|##14-##14-##1412h14-------12121212121212121212--10-12-14------------|
E|##12-##12-##12-------------10101010101010101010-----10-12------------|

	2:33-2:38             xx xx xx xx xx xx
e|---------------------------------------------------------------------|
B|---------------------------------------------------------------------|
G|-------------------------------------------------12------------------|
D|---------------------12h14-----------------------12-12-14------------|
A|##14-##14-##1412h14-------12121212121212121212--10-12-14------------|
E|##12-##12-##12-------------10101010101010101010-----10-12------------|

	2:39-2:43
e|---------------------------------------------------------------------|
B|---------------------------------------------------------------------|
G|---------------14--16--14------------------------12------------------|
D|---------------12--14--12------------------------10-12-14------------|
A|##14-##14-##14------------12121212121212121212--10-10-12------------|
E|##12-##12-##12-------------10101010101010101010-----10-12------------|

Thanks for looking at this tab it took a long time so please, PLEASE rate.
key
p=pull off
h=hammer on
tr=trill
x=palm mute
b=bend
\=slide down
/=slide up
?=dont know
~=vibrato
Related for Paranoid Live tab