Song name
# A B C D E F G H I J K L M N O P Q R S T U V W X Y Z

Ozzy Osbourne - Little Dolls tab

-------------------------------------------------------------------------------
			     LITTLE DOLLS - Ozzy Osbourne
-------------------------------------------------------------------------------

Tabbed by: Isaias Garcia (TexasFury)

Tuning: 1/2 step down


Rhythm - left

      W                   W                   W                   H        Q        Q      
D#||-------------------|-------------------|-------------------|--------------------------|
A#||-------------------|-------------------|-------------------|--------------------------|
F#||-------------------|-------------------|-------------------|--------------------------|
C#||-------------------|-------------------|-------------------|--------------------------|
G#||-------------------|-------------------|-------------------|--------------------------|
D#||-------------------|-------------------|-------------------|-----------------xg19\----|


Verse 1

  PM   PM                PM PM PM       PM                    PM              
  Q    E  E  H           E  E  E  E  E  S  S S S  S S    Q    E  E  H         
----------------------|-------------------------------|----------------------|
----------------------|-------------------------------|----------------------|
----------7--L--------|-------------------------------|----------7--L--------|
--9----9--7--L--------|--6--7-----------------------7-|--9----9--7--L--------|
--9----9--------------|--4--5--7--7--L-------5-7S-9---|-------9--------------|
--7----7--------------|--------5--0--L--5h-7----------|-------7--------------|


  PM PM PM PM                  PM PM PM                PM PM PM      SH   W        
  E  E  E  E  E  S S S S E     E  E  E  E  H           E  E  E  E    E    E  Q     
----------------------------|-----------------------|-----------------------------|
----------------------------|-----------------------|-----------------------------|
----------------------------|-----------7--L--------|-----------------------------|
-----------------------7-9--|-----9-----7--L--------|--6--7--------<>9br--L--L----|
-----5-----7-----7-8-9------|--9-----9--5--L--------|--4--5--7--------------------|
--4-----5--0----------------|--7-----7--------------|--------5--0-----------------|


  PM   PM                PM PM PM                                             
  Q    E  E  H           E  E  E  E  S  S S  S S E.      Q    E  E  H         
----------------------|-------------------------------|----------------------|
----------------------|-------------------------------|----------------------|
----------7--L--------|-------------------------------|----------7--L--------|
----------7--L--------|--6--7--------------------7~---|--9----9--7--L--------|
--9----9--------------|--4--5--7----------5h-7-9------|--9----9--------------|
--7----7--------------|--------5--0--5h-7-------------|--7----7--------------|


  PM PM PM                     SH PM PM                PM PM PM                                    
  E  E  E  E  S E.  S E.       E  E  E  E  H           E  E  E  S S H           Q    H.            
--------------------------|-------------------------|------------------------|--------------------|
--------------------------|-------------------------|------------------------|--------------------|
----------------7---------|-------------7--L--------|------------------------|--------------------|
--6--7----------7-----7---|--<>9--------7--L--------|--6--7-----7-8-9--------|--9-----------------|
--4--5--7-----x-5---x-7---|-------9--9--------------|--4--5--7--7-7-7--------|--7-----------------|
--------5--0----------5---|-------7--7--------------|--------5---------------|-------0------------|


                                                                           PM PM              
  Q    Q    Q    Q       Q    Q    Q     Q        Q    Q    H           E  E  E  E  H         
-------0---------0----|-------0----0-----------|-------0-------------|-----------------------|
----------------------|-------0----0-----------|-------0-------------|-----------------------|
----------------------|------------------------|---------------------|-----------7--L--------|
--7---------7---------|--9---------------------|--7------------------|--9-----9--7--L--------|
--5---------7---------|--7---------------------|--5---------7--------|--9--7--9--------------|
------------5---------|--0--------------19\----|------------5--------|--7--5--7--------------|


  PM PM PM    PM PM                 PM                   PM PM PM                     
  E  E  E  E  S  S  E  S S E     E  E  E  E  H           E  E  E  E  E  E   E   S  S  
------------------------------|--7--------------------|------------------------------|
------------------------------|-----------------------|--------------------10--10-10-|
------------------------------|-----------7--L--------|------------------------------|
--6------------------------7--|-----------7--L--------|--6--7------------------------|
--4--5--7-----------5--7-9----|--------9--5--L--------|--4--5--7---------------------|
--------5--0--5--7------------|-----7--7--------------|--------5--0--0--0------------|


Verse 2

  PM   PM                PM PM PM PM                       PM   PM              
  Q    E  E  H           E  E  E  E   E    E    E    E     Q    E  E  H         
----------------------|---------------------------------|----------------------|
----------------------|--------------10s--12S--10s--12--|----------------------|
----------7--L--------|---------------------------------|----------7--L--------|
--9----9--7--L--------|--6--7---------7s---9S---7s---9--|--9----9--7--L--------|
--9----9--------------|--4--5--7------------------------|--9----9--------------|
--7----7--------------|--------5--0---------------------|--7----7--------------|


  PM PM PM                   PM PM PM                PM PM PM      PH         
  E  E  E  E  S E.  S E.     E  E  E  E  H           E  E  E  E    H          
--------------------------|-----------------------|--------------------------|
--------------------------|-----------------------|--------------------------|
----------------7---------|-----------7--L--------|--------------<>9~--------|
--6--7--------x-7-----7---|--9-----9--7--L--------|--6--7--------------------|
--4--5--7-----x-5-----7---|--9-----9--------------|--4--5--7-----------------|
--------5--0----------5---|--7--7--7--------------|--------5--0--------------|


  PM   PM                PM PM PM                                                              
  Q    E  E  H           E  E  E  E  H           Q    E  E  E  E  Q       Q    Q    Q    Q     
----------------------|-----------------------|-------0--------0--L----|-------0---------0----|
----------------------|-----------------------|----------0--L----------|----------------------|
----------7--L--------|-----------------------|------------------------|----------------------|
--9----9--7--L--------|--6--7-----------------|------------------------|--7-------------------|
--9----9--------------|--4--5-----------------|------------------------|--5---------7---------|
--7----7--------------|--------0--0--L--------|--0---------------------|------------5---------|


                                              Chorus 1

                                                PM PM PM           PM        
  Q    E  E  H           Q    Q    Q    Q       E  S  S   E  E  E  E  E  E   
-------0--------------|-------0--------------|------------------------------|
----------0--L--------|-------0--------------|-----------10--9--L-----------|
----------------------|--7-------------------|------------9--9--L-----9--7--|
----------------------|--7-------------------|------------9--9--L-----9--7--|
----------------------|--5-------------------|--0--0--0------------0--------|
--0-------------------|------------2----4----|------------------------------|


       PM PM PM PM PM PM           PM PM PM PM          PM               PM PM PM    PM PM         
  Q    E  S  S  E  S  S  E   E     S  S  S  S  E  E  E  E  E  E     Q    E  S  S  E  S  S  E   E   
--------------------------------|--------------------------------|--------------------------------|
--------------------------------|--------------------------------|--------------------------------|
--L----------------------2h--4--|-----------------9--L-----9--7--|--L-------------4--------2h--4--|
--L----------------------2h--4--|-----------------9--L-----9--7--|--L-------------4--------2h--4--|
-------0--0--0--0--0--0---------|--0--0--0--0--0--------0--------|-------0--0--0-----0--0---------|
--------------------------------|--------------------------------|--------------------------------|


  PM PM PM          PM PM               PM PM PM PM    PM PM           PM PM PM           PM        
  E  S  S  E  E  E  S  S  E  E     Q    S  S  S  S  E  S  S  E   E     E  S  S   E  E  E  E  E  E   
--------------------------------|-----------------------------------|------------------------------|
--------------------------------|-----------------------------------|-----------10--9--L-----------|
--------------9--L--------9--7--|--L----------------4--------2h--4--|------------9--9--L-----9--7--|
--------------9--L--------9--7--|--L----------------4--------2h--4--|------------9--9--L-----9--7--|
--0--0--0--0--------0--0--------|-------0--0--0--0-----0--0---------|--0--0--0------------0-----5--|
--------------------------------|-----------------------------------|------------------------------|


                        Verse 3

                           PM   PM                PM PM PM                       
  Q.     E  Q     Q        Q    E  E  H           E  E  E  E  S  S E   S  S E    
---------0--------------|----------------------|-------------------7------------|
---------0--------------|----------------------|-----------------7----10p-7-----|
--L---------9-----------|----------7--L--------|--------------9b------------9b--|
--L---------9-----------|--9----9--7--L--------|--6--7--------------------------|
--L---------7-----------|--9----9--------------|--4--5--------------------------|
-----------------17\----|--7----7--------------|--------0--0--------------------|


  PM   PM                PM PM PM                W       PM   PM              
  Q    E  E  H           E  E  E   S   S   Q     Q       Q    E  E  H         
----------------------|---------------18b--L-----L----|----------------------|
----------------------|-------------------------------|----------------------|
----------7--L--------|-----------(0)-----------------|----------7--L--------|
--9----9--7--L--------|--6--7-------------------------|--9----9--7--L--------|
--9----9--------------|--4--5-------------------------|--9----9--------------|
--7----7--------------|--------0----------------------|--7----7--------------|


  PM PM PM PM                                  PM   PM              
                          |--3--|                                   
  E  E  E  E  T  T  T  T  S  S  S  S  S  E     Q    E  E  H         
--------------------------------------------|----------------------|
--------------------------------------------|----------------------|
--------------------------------------------|----------7--L--------|
--6--7--------7h-9p-7h-9S-5h-7p-5S-4h-5p-4--|--9----9--7--L--------|
--4--5--------------------------------------|--9----9--------------|
--------0--0--------------------------------|--7----7--------------|


  PM PM PM PM PM  PM               PM   PM                PM PM PM         NH  NH    NH  NH  
  E  E  E  E  E   E    S  S  E     Q    E  E  H           E  E  E  E  E    S   S S   S   E   
--------------------------------|----------------------|-------------------------------<>7--|
----------------------10-10-10--|----------------------|---------------------------<>7------|
-----------------------7--7--7--|----------7--L--------|---------------------<>7-L----------|
--6--7--------------------------|--9----9--7--L--------|--6--7-----------<>5----------------|
--4--5--------------------------|--9----9--------------|--4--5------------------------------|
--------0--0--0--(0)------------|--7----7--------------|--------0--0--L---------------------|


                                               Bridge

  PM   PM                PM PM PM                                                      
  Q    E  E  H           E  E  E  E  H           W                   W                 
----------------------|-----------------------|-------------------|-------------------|
----------------------|-----------------------|-------------------|-------------------|
----------7--L--------|-----------------------|-------------------|-------------------|
--9----9--7--L--------|--6--7-----------------|-------------------|-------------------|
--9----9--5--L--------|--4--5-----------------|-------------------|-------------------|
--7----7--------------|--------0--0--L--------|-------------------|-------------------|


  W                   W                   W                   W                   W                 
-------------------|-------------------|-------------------|-------------------|-------------------|
-------------------|-------------------|-------------------|-------------------|-------------------|
-------------------|-------------------|-------------------|-------------------|-------------------|
-------------------|-------------------|-------------------|-------------------|-------------------|
-------------------|-------------------|-------------------|-------------------|-------------------|
-------------------|-------------------|-------------------|-------------------|-------------------|


  W                   W                   W                   W                   W                 
-------------------|-------------------|-------------------|-------------------|-------------------|
-------------------|-------------------|-------------------|-------------------|-------------------|
-------------------|-------------------|-------------------|-------------------|-------------------|
-------------------|-------------------|-------------------|-------------------|-------------------|
-------------------|-------------------|-------------------|-------------------|-------------------|
-------------------|-------------------|-------------------|-------------------|-------------------|


  W                   W                   W                   W                   W                 
-------------------|-------------------|-------------------|-------------------|-------------------|
-------------------|-------------------|-------------------|-------------------|-------------------|
-------------------|-------------------|-------------------|-------------------|-------------------|
-------------------|-------------------|-------------------|-------------------|-------------------|
-------------------|-------------------|-------------------|-------------------|-------------------|
-------------------|-------------------|-------------------|-------------------|-------------------|


                                                            Chorus 2

                                                              PM PM PM PM                 
  W                   W                   W                   S  S  S  S  H        E  E   
-------------------|-------------------|-------------------|-----------------------------|
-------------------|-------------------|-------------------|-----------------------------|
-------------------|-------------------|-------------------|--------------2--------9--7--|
-------------------|-------------------|-------------------|--------------2--------9--7--|
-------------------|-------------------|-------------------|--0--0--0--0--0--------------|
-------------------|-------------------|-------------------|-----------------------------|


       PM PM PM PM    PM PM           PM PM PM PM                    
  Q    S  S  S  S  E  S  S  E   E     S  S  S  S   E  E  Q    E  E   
-----------------------------------|--------------------------------|
-----------------------------------|--------------10--9--L----------|
--L----------------4--------2h--4--|---------------9--9--L----9--7--|
--L----------------4--------2h--4--|---------------9--9--L----9--7--|
-------0--0--0--0-----0--0---------|--0--0--0--0--------------------|
-----------------------------------|--------------------------------|


       PM PM PM    PM PM    PM PM    PM PM PM PM                    
  Q    E  S  S  E  S  S  E  S  S     S  S  S  S   E  E  Q    E  E   
----------------------------------|--------------------------------|
----------------------------------|--------------10--9--L----------|
--L-------------4--------2--------|---------------9--9--L----9--7--|
--L-------------4--------2--------|---------------9--9--L----9--7--|
-------0--0--0-----0--0-----0--0--|--0--0--0--0--------------------|
----------------------------------|--------------------------------|


       PM PM PM PM    PM PM           PM PM PM PM                                         
  Q    S  S  S  S  E  S  S  E   E     S  S  S  S   E  E  Q    E  E     H        H         
-----------------------------------|--------------------------------|--------------------|
-----------------------------------|--------------10--9--L----------|--------------------|
--L----------------4--------2h--4--|---------------9--9--L----9--7--|--L--------9--------|
--L----------------4--------2h--4--|---------------9--9--L----9--7--|--L--------9--------|
-------0--0--0--0-----0--0---------|--0--0--0--0-----------------5--|--L--------7--------|
-----------------------------------|--------------------------------|-----------0--------|


Guitar Solo

  W                   W                   W                   W                   W                 
-------------------|-------------------|-------------------|-------------------|-------------------|
-------------------|-------------------|-------------------|-------------------|-------------------|
-------------------|-------------------|-------------------|-------------------|-------------------|
-------------------|-------------------|-------------------|-------------------|-------------------|
-------------------|-------------------|-------------------|-------------------|-------------------|
-------------------|-------------------|-------------------|-------------------|-------------------|


  W                   W                   W                   W                   W                 
-------------------|-------------------|-------------------|-------------------|-------------------|
-------------------|-------------------|-------------------|-------------------|-------------------|
-------------------|-------------------|-------------------|-------------------|-------------------|
-------------------|-------------------|-------------------|-------------------|-------------------|
-------------------|-------------------|-------------------|-------------------|-------------------|
-------------------|-------------------|-------------------|-------------------|-------------------|


  W                   W                   W                   W                   W                 
-------------------|-------------------|-------------------|-------------------|-------------------|
-------------------|-------------------|-------------------|-------------------|-------------------|
-------------------|-------------------|-------------------|-------------------|-------------------|
-------------------|-------------------|-------------------|-------------------|-------------------|
-------------------|-------------------|-------------------|-------------------|-------------------|
-------------------|-------------------|-------------------|-------------------|-------------------|


                                                              Verse 4

                                                              PM PM PM              
  W                   W                   W                   E  E  E  E  H         
-------------------|-------------------|-------------------|-----------------------|
-------------------|-------------------|-------------------|-----------------------|
-------------------|-------------------|-------------------|-----------7--L--------|
-------------------|-------------------|-------------------|--9-----9--7--L--------|
-------------------|-------------------|-------------------|--9-----9--5--L--------|
-------------------|-------------------|-------------------|--7--7--7--------------|


  PM PM PM                         PM   PM              
  E  E  E  E  S  S S  S  S S E     Q    E  E  H         
--------------------------------|----------------------|
--------------------------------|----------------------|
--------------------------------|----------7--L--------|
--6--7---------------------7-9--|--9----9--7--L--------|
--4--5-------------5h-7s-9------|--9----9--5--L--------|
--------0--0--5h-7--------------|--7----7--------------|


  PM PM PM PM                                  PM PM PM                PM PM PM PM \2/       
                               |--3-| |-3-|                                                  
  E  E  E  E  S  T  T  T  T S  S  S S S S S    E  E  E  E  H           E  E  E  E  H         
--------------7-----------------------------|-----------------------|-----------------------|
----------------10p-7-10p-7-7-10p-7---7-----|-----------------------|--------------0--------|
------------------------------------9---9-7-|-----------7--L--------|-----------------------|
--6--7--------------------------------------|--9-----9--7--L--------|--6--7-----------------|
--4--5--------------------------------------|--------9--5--L--------|--4--5-----------------|
--------0--0--------------------------------|-----7--7--------------|--------0--0-----------|


  PM   PM                PM PM PM PM                      PM   PM              
  Q    E  E  H           E  E  E  E   E    E   E    E     Q    E  E  H         
----------------------|--------------------------------|----------------------|
----------------------|--------------10---12--10---12--|----------------------|
----------7--L--------|--------------------------------|----------7--L--------|
--9----9--7--L--------|--6--7---------7s---9---7s---9--|--9----9--7--L--------|
--9----9--5--L--------|--4--5--------------------------|--9----9--5--L--------|
--7----7--------------|--------0--0--------------------|--7----7--------------|


  PM PM PM PM               PM   PM                PM PM PM              
  E  E  E  E   H            Q    E  E  H           E  E  E  E  H         
--------------19b--------|----------------------|-----------------------|
-------------------------|----------------------|-----------------------|
-------------------------|----------7--L--------|-----------------------|
--6--7-------------------|--9----9--7--L--------|--6--7-----------------|
--4--5-------------------|--9----9--5--L--------|--4--5-----------------|
--------0--0-------------|--7----7--------------|--------0--0--L--------|


Chorus 3

  PM PM PM           PM               PM PM PM    PM PM           PM PM PM           PM        
  E  S  S   E  E  E  E  E  E     Q    E  S  S  E  S  S  E   E     E  S  S   E  E  E  E  E  E   
------------------------------|--------------------------------|------------------------------|
-----------10--9--L-----------|--------------------------------|-----------10--9--L-----------|
------------9--9--L-----9--7--|--L-------------4--------2h--4--|------------9--9--L-----9--7--|
------------9--9--L-----9--7--|--L-------------4--------2h--4--|------------9--9--L-----9--7--|
--0--0--0------------0--------|-------0--0--0-----0--0---------|--0--0--0------------0--------|
------------------------------|--------------------------------|------------------------------|


       PM PM PM PM    PM PM    PM PM    PM PM PM PM           PM        
  Q    S  S  S  S  E  S  S  E  S  S     S  S  S  S   E  E  E  E  E  E   
-------------------------------------|---------------------------------|
-------------------------------------|--------------10--9--L-----------|
--L----------------4--------2--------|---------------9--9--L-----9--7--|
--L----------------4--------2--------|---------------9--9--L-----9--7--|
-------0--0--0--0-----0--0-----0--0--|--0--0--0--0------------0--------|
-------------------------------------|---------------------------------|


       PM PM PM PM    PM PM           PM PM PM           PM        
  Q    S  S  S  S  E  S  S  E   E     E  S  S   E  E  E  E  E  E   
-----------------------------------|------------------------------|
-----------------------------------|-----------10--9--L-----------|
--L----------------4--------2h--4--|------------9--9--L-----9--7--|
--L----------------4--------2h--4--|------------9--9--L-----9--7--|
-------0--0--0--0-----0--0---------|--0--0--0------------0--------|
-----------------------------------|------------------------------|


                                      Outro

       PM PM PM PM    PM PM    PM PM    PM PM PM           PM        
  Q    S  S  S  S  E  S  S  E  S  S     E  S  S   E  E  E  E  E  E   
-------------------------------------||------------------------------|
-------------------------------------||-----------10--9--L-----------|
--L----------------4--------2--------||------------9--9--L-----9--7--|
--L----------------4--------2--------||------------9--9--L-----9--7--|
-------0--0--0--0-----0--0-----0--0--||--0--0--0------------0--------|
-------------------------------------||------------------------------|


       PM PM PM    PM PM           PM PM PM           PM               PM PM PM    PM PM         
  Q    E  S  S  E  S  S  E   E     E  S  S   E  E  E  E  E  E     Q    E  S  S  E  S  S  E   E   
--------------------------------|------------------------------|--------------------------------|
--------------------------------|-----------10--9--L-----------|--------------------------------|
--L-------------4--------2h--4--|------------9--9--L-----9--7--|--L-------------4--------2h--4--|
--L-------------4--------2h--4--|------------9--9--L-----9--7--|--L-------------4--------2h--4--|
-------0--0--0-----0--0---------|--0--0--0------------0--------|-------0--0--0-----0--0---------|
--------------------------------|------------------------------|--------------------------------|


  PM PM PM           PM               PM PM PM    PM PM           PM PM PM           PM        
  E  S  S   E  E  E  E  E  E     Q    E  S  S  E  S  S  E   E     E  S  S   E  E  E  E  E  E   
------------------------------|--------------------------------|------------------------------|
-----------10--9--L-----------|--------------------------------|-----------10--9--L-----------|
------------9--9--L-----9--7--|--L-------------4--------2h--4--|------------9--9--L-----9--7--|
------------9--9--L-----9--7--|--L-------------4--------2h--4--|------------9--9--L-----9--7--|
--0--0--0------------0--------|-------0--0--0-----0--0---------|--0--0--0------------0--------|
------------------------------|--------------------------------|------------------------------|


       PM PM PM    PM PM           PM PM PM           PM               PM PM PM    PM PM         
  Q    E  S  S  E  S  S  E   E     E  S  S   E  E  E  E  E  E     Q    E  S  S  E  S  S  E   E   
--------------------------------|------------------------------|--------------------------------|
--------------------------------|-----------10--9--L-----------|--------------------------------|
--L-------------4--------2h--4--|------------9--9--L-----9--7--|--L-------------4--------2h--4--|
--L-------------4--------2h--4--|------------9--9--L-----9--7--|--L-------------4--------2h--4--|
-------0--0--0-----0--0---------|--0--0--0------------0--------|-------0--0--0-----0--0---------|
--------------------------------|------------------------------|--------------------------------|


  PM PM PM           PM               PM PM PM    PM PM           PM PM PM           PM        
  E  S  S   E  E  E  E  E  E     Q    E  S  S  E  S  S  E   E     E  S  S   E  E  E  E  E  E   
------------------------------|--------------------------------|------------------------------|
-----------10--9--L-----------|--------------------------------|-----------10--9--L-----------|
------------9--9--L-----9--7--|--L-------------4--------2h--4--|------------9--9--L-----9--7--|
------------9--9--L-----9--7--|--L-------------4--------2h--4--|------------9--9--L-----9--7--|
--0--0--0------------0--------|-------0--0--0-----0--0---------|--0--0--0------------0--------|
------------------------------|--------------------------------|------------------------------|


       PM PM PM    PM PM           PM PM PM           PM               PM PM PM    PM PM         
  Q    E  S  S  E  S  S  E   E     E  S  S   E  E  E  E  E  E     Q    E  S  S  E  S  S  E   E   
--------------------------------|------------------------------|--------------------------------|
--------------------------------|-----------10--9--L-----------|--------------------------------|
--L-------------4--------2h--4--|------------9--9--L-----9--7--|--L-------------4--------2h--4--|
--L-------------4--------2h--4--|------------9--9--L-----9--7--|--L-------------4--------2h--4--|
-------0--0--0-----0--0---------|--0--0--0------------0--------|-------0--0--0-----0--0---------|
--------------------------------|------------------------------|--------------------------------|


  PM PM PM           PM               PM PM PM    PM PM           PM PM PM           PM        
  E  S  S   E  E  E  E  E  E     Q    E  S  S  E  S  S  E   E     E  S  S   E  E  E  E  E  E   
------------------------------|--------------------------------|------------------------------|
-----------10--9--L-----------|--------------------------------|-----------10--9--L-----------|
------------9--9--L-----9--7--|--L-------------4--------2h--4--|------------9--9--L-----9--7--|
------------9--9--L-----9--7--|--L-------------4--------2h--4--|------------9--9--L-----9--7--|
--0--0--0------------0--------|-------0--0--0-----0--0---------|--0--0--0------------0--------|
------------------------------|--------------------------------|------------------------------|


       PM PM PM    PM PM           PM PM PM           PM               PM PM PM    PM PM         
  Q    E  S  S  E  S  S  E   E     E  S  S   E  E  E  E  E  E     Q    E  S  S  E  S  S  E   E   
--------------------------------|------------------------------|--------------------------------|
--------------------------------|-----------10--9--L-----------|--------------------------------|
--L-------------4--------2h--4--|------------9--9--L-----9--7--|--L-------------4--------2h--4--|
--L-------------4--------2h--4--|------------9--9--L-----9--7--|--L-------------4--------2h--4--|
-------0--0--0-----0--0---------|--0--0--0------------0--------|-------0--0--0-----0--0---------|
--------------------------------|------------------------------|--------------------------------|


  PM PM PM           PM               PM PM PM    PM PM           PM PM PM           PM        
  E  S  S   E  E  E  E  E  E     Q    E  S  S  E  S  S  E   E     E  S  S   E  E  E  E  E  E   
------------------------------|--------------------------------|------------------------------|
-----------10--9--L-----------|--------------------------------|-----------10--9--L-----------|
------------9--9--L-----9--7--|--L-------------4--------2h--4--|------------9--9--L-----9--7--|
------------9--9--L-----9--7--|--L-------------4--------2h--4--|------------9--9--L-----9--7--|
--0--0--0------------0--------|-------0--0--0-----0--0---------|--0--0--0------------0--------|
------------------------------|--------------------------------|------------------------------|


       PM PM PM    PM PM           PM PM PM           PM               PM PM PM    PM PM         
  Q    E  S  S  E  S  S  E   E     E  S  S   E  E  E  E  E  E     Q    E  S  S  E  S  S  E   E   
--------------------------------|------------------------------|--------------------------------|
--------------------------------|-----------10--9--L-----------|--------------------------------|
--L-------------4--------2h--4--|------------9--9--L-----9--7--|--L-------------4--------2h--4--|
--L-------------4--------2h--4--|------------9--9--L-----9--7--|--L-------------4--------2h--4--|
-------0--0--0-----0--0---------|--0--0--0------------0--------|-------0--0--0-----0--0---------|
--------------------------------|------------------------------|--------------------------------|


  PM PM PM           PM               PM PM PM    PM PM           PM PM PM           PM         
  E  S  S   E  E  E  E  E  E     Q    E  S  S  E  S  S  E   E     E  S  S   E  E  E  E  E  E    
------------------------------|--------------------------------|------------------------------||
-----------10--9--L-----------|--------------------------------|-----------10--9--L-----------||
------------9--9--L-----9--7--|--L-------------4--------2h--4--|------------9--9--L-----9--7--||
------------9--9--L-----9--7--|--L-------------4--------2h--4--|------------9--9--L-----9--7--||
--0--0--0------------0--------|-------0--0--0-----0--0---------|--0--0--0------------0--------||
------------------------------|--------------------------------|------------------------------||



Rhythm - right

      W                   W                   W                   H        Q        Q      
D#||-------------------|-------------------|-------------------|--------------------------|
A#||-------------------|-------------------|-------------------|--------------------------|
F#||-------------------|-------------------|-------------------|--------------------------|
C#||-------------------|-------------------|-------------------|--------------------------|
G#||-------------------|-------------------|-------------------|--------------------------|
D#||-------------------|-------------------|-------------------|-----------------xg19\----|


  PM   PM                PM PM PM       PM                    PM              
  Q    E  E  H           E  E  E  E  E  S  S S S S  S    Q    E  E  H         
----------------------|-------------------------------|----------------------|
----------------------|-------------------------------|----------------------|
----------7--L--------|-------------------------------|----------7--L--------|
--9----9--7--L--------|--6--7-------------------------|--9----9--7--L--------|
--9----9--------------|--4--5--7--7--L-------5-7-8s-9-|-------9--------------|
--7----7--------------|--------5--0--L--5--7----------|-------7--------------|


  PM PM PM                       PM   PM                PM PM PM      PH   W        
  E  E  E  E  E  S  S  S S E     Q    E  E  H           E  E  E  E    E    E  Q     
------------------------------|----------------------|-----------------------------|
------------------------------|----------------------|-----------------------------|
---------------------------7--|----------7--L--------|-----------------------------|
--6--7-------------------7----|----------7--L--------|--6--7--------<>9br--L--L----|
--4--5--7--------5h-7h-9------|--9----9--------------|--4--5--7--------------------|
--------5--0------------------|--7----7--------------|--------5--0-----------------|


  PM   PM                PM PM PM                                             
  Q    E  E  H           E  E  E  E  S  S S  S S E.      Q    E  E  H         
----------------------|-------------------------------|----------------------|
----------------------|-------------------------------|----------------------|
----------7--L--------|-------------------------------|----------7--L--------|
----------7--L--------|--6--7--------------------7~---|--9----9--7--L--------|
--9----9--------------|--4--5--7----------5h-7-9------|--9----9--------------|
--7----7--------------|--------5--0--5h-7-------------|--7----7--------------|


  PM PM PM                     SH PM PM                PM PM PM                   
  E  E  E  E  S E.  S E.       E  E  E  E  H           E  E  E  E  E   E    Q     
--------------------------|-------------------------|----------------------------|
--------------------------|-------------------------|----------------------------|
----------------7---------|-------------7--L--------|----------------------------|
--6--7----------7-----7---|--<>9--------7--L--------|--6--7----------------------|
--4--5--7-----x-5---x-7---|-------9--9--------------|--4--5--7-------------------|
--------5--0----------5---|-------7--7--------------|--------5--0--L--19\---L----|


  Q    H         Q        Q    Q    H           Q    Q    Q     Q        Q    Q    H         
-------0---------------|-------0-------------|------------0-----------|-------0-------------|
-------0---------------|---------------------|-------0----------------|-------0-------------|
-----------------------|---------------------|------------------------|---------------------|
-----------------------|--7---------7--------|------------------------|--7---------7--------|
-----------------------|--5---------7--------|------------------------|--5---------7--------|
--0-------------19\----|------------5--------|--0--------------19\----|------------5--------|


     PM PM                             PM PM                                     
  E  E  E  E  H           E   E  E  E  S  S  E  S  S E     E  E  E  E  H         
-----------------------|--------------------------------|--7--------------------|
-----------------------|--------------------------------|-----x-----------------|
-----------7--L--------|--------------------------------|-----x-----7--L--------|
--9-----9--7--L--------|--6s--7-----9----------------7--|--------9--7--L--------|
--9--7--9--------------|--4s--5--7--7--------5--7h-9----|--------9--------------|
--7--5--7--------------|---------5-----5--7-------------|-----------------------|


  PM PM PM    PM PM           PM   PM                PM PM PM                       
  E  E  E  E  E  E   Q        Q    E  E  H           E  E  E  E  E    E    E    E   
---------------------------|----------------------|--------------------------------|
--------------------10b----|----------------------|------------------12S--10s--12--|
---------------------------|----------7--L--------|--------------------------------|
--6--7---------------------|--9----9--7--L--------|--6--7--------7s---9S---7s---9--|
--4--5--7------------------|--9----9--------------|--4--5--7-----------------------|
--------5--0--0--0---------|--7----7--------------|--------5--0--------------------|


  PM   PM                PM PM PM                                          PM PM PM      PH         
  Q    E  E  H           E  E  E  E  S E.  S E.     Q    E  E  H           E  E  E  E    H          
----------------------|--------------------------|----------------------|--------------------------|
----------------------|--------------------------|----------------------|--------------------------|
----------7--L--------|----------------7---------|----------7--L--------|--------------<>9~--------|
--9----9--7--L--------|--6--7--------x-7-----7---|--9----9--7--L--------|--6--7--------------------|
--9----9--------------|--4--5--7-----x-5-----7---|--9----9--------------|--4--5--7-----------------|
--7----7--------------|--------5--0----------5---|--7----7--------------|--------5--0--------------|


  PM   PM                PM PM PM                                                                 
  Q    E  E  H           E  E  E  E  Q     Q        Q    H         Q        E  E  Q    Q    Q     
----------------------|--------------------------|-------0---------------|--------0---------0----|
----------------------|--------------------------|-------0---------------|-----------------------|
----------7--L--------|--------------------------|-----------------------|-----7-----------------|
--9----9--7--L--------|--6--7--------------------|-----------------------|--7--------------------|
--9----9--------------|--4--5--------------------|-----------------------|--5----------7---------|
--7----7--------------|--------0--0--L----17\----|--0-------------17\----|-------------5---------|


                                                 PM PM PM           PM        
  Q    H         Q        Q    Q    Q    Q       E  S  S   E  E  E  E  E  E   
-------0---------------|-------0--------------|------------------------------|
-------0---------------|-------0--------------|-----------10--9--L-----------|
-----------------------|--7-------------------|------------9--9--L-----9--7--|
-----------------------|--7-------------------|------------9--9--L-----9--7--|
-----------------------|--5-------------------|--0--0--0------------0--------|
--0-------------17\----|------------2----4----|------------------------------|


       PM PM PM PM PM PM           PM PM PM           PM               PM PM PM PM    PM PM         
  Q    E  S  S  E  S  S  E   E     E  S  S   E  E  E  E  E  E     Q    S  S  S  S  E  S  S  S  E.   
--------------------------------|------------------------------|-----------------------------------|
--------------------------------|-----------10--9--L-----------|-----------------------------------|
--L----------------------2h--4--|------------9--9--L-----9--7--|--L----------------4--------2h-4---|
--L----------------------2h--4--|------------9--9--L-----9--7--|--L----------------4--------2h-4---|
-------0--0--0--0--0--0---------|--0--0--0------------0--------|-------0--0--0--0-----0--0---------|
--------------------------------|------------------------------|-----------------------------------|


  PM PM PM           PM               PM PM PM PM    PM PM           PM PM PM           PM        
  E  S  S   E  E  E  E  E  E     Q    S  S  S  S  E  S  S  E   E     E  S  S   E  E  E  E  E  E   
------------------------------|-----------------------------------|------------------------------|
-----------10--9--L-----------|-----------------------------------|-----------10--9--L-----------|
------------9--9--L-----9--7--|--L----------------4--------2h--4--|------------9--9--L-----9--7--|
------------9--9--L-----9--7--|--L----------------4--------2h--4--|------------9--9--L-----9--7--|
--0--0--0------------0--------|-------0--0--0--0-----0--0---------|--0--0--0------------0-----5--|
------------------------------|-----------------------------------|------------------------------|


                           PM PM                PM PM PM PM                    
  Q.     E  H           E  E  E  E  H           E  E  E  E  S  S E   S  S E    
---------------------|-----------------------|-------------------7------------|
---------------------|-----------------------|-----------------7----10p-7-----|
--L---------9--------|-----------7--L--------|--------------9b------------9b--|
--L---------9--------|--9-----9--7--L--------|--6--7-----9--------------------|
--L---------7--------|--9--7--9--------------|--4--5-----7--------------------|
---------0-----------|--7--5--7--------------|--------0-----------------------|


  PM   PM                PM PM PM                      PM   PM              
  Q    E  E  H           E  E  E   E    Q     Q        Q    E  E  H         
----------------------|-----------18b---L-----L~----|----------------------|
----------------------|-----------------------------|----------------------|
----------7--L--------|-----------------------------|----------7--L--------|
--9----9--7--L--------|--6--7-----------------------|--9----9--7--L--------|
--9----9--------------|--4--5-----------------------|--9----9--------------|
--7----7--------------|--------0--------------------|--7----7--------------|


  PM PM PM                                     PM   PM                PM PM PM    PM PM           
                          |--3--|                                                                 
  E  E  E  E  T  T  T  T  S  S  S  S  S  E     Q    E  E  H           E  E  E  E  E  E   S  S E   
--------------------------------------------|----------------------|-----------------------------|
--------------------------------------------|----------------------|--------------------10-10----|
--------------------------------------------|----------7--L--------|---------------------7--7----|
--6--7--------7h-9p-7h-9S-5h-7p-5S-4h-5p-4--|--9----9--7--L--------|--6--7-----------------------|
--4--5--------------------------------------|--9----9--------------|--4--5-----------------------|
--------0--0--------------------------------|--7----7--------------|--------0--0--0--0-----------|


  PM   PM                PM PM           PM   NH    NH  NH    PM PM PM              
  Q    E  E  H           E  E  E  E  E   S    S S   S   E     E  E  E  E  H         
----------------------|-------------------------------<>7--|-----------------------|
----------------------|---------------------------<>7------|-----------------------|
----------7--L--------|---------------------<>7-L----------|-----------7--L--------|
--9----9--7--L--------|--6--7-----------(0)----------------|--9-----9--7--L--------|
--9----9--------------|--4--5------------------------------|--9-----9--5--L--------|
--7----7--------------|--------5--0--L---------------------|--7--7--7--------------|


  PM PM PM                                                                              
  E  E  E  E  H           W                   W                   E.  S Q    Q    Q     
-----------------------|-------------------|--3----------------|-----------------------|
-----------------------|-------------------|--3----------------|-----------------------|
-----------------------|-------------------|--0----------------|-------------7---------|
--6--7-----------------|--7----------------|--0----------------|------7-L---------7----|
--4--5-----------------|--7----------------|-------------------|--5--------------------|
--------0--0--L--------|--5----------------|--3----------------|-----------------------|


          PM PM PM PM PM                                                              
   Q.     E  E  E  E  E     W                   W                   W                 
-------------------------|-------------------|--3----------------|-------------------|
-------------------------|-------------------|--3----------------|-------------------|
--10---------------------|-------------------|--0----------------|--7----------------|
--10---------------------|--7----------------|--0----------------|--7----------------|
---8------0--1--3--------|--7----------------|-------------------|--5----------------|
-------------------1--3--|--5----------------|--3----------------|-------------------|


          PM PM PM PM PM                                                              
   Q.     E  E  E  E  E     W                   W                   W                 
-------------------------|-------------------|--3----------------|-------------------|
-------------------------|-------------------|--3----------------|-------------------|
--10---------------------|-------------------|--0----------------|--7----------------|
--10---------------------|--7----------------|--0----------------|--7----------------|
---8------0--1--3--------|--7----------------|-------------------|--5----------------|
-------------------1--3--|--5----------------|--3----------------|-------------------|


          PM PM PM PM PM                                                              
   Q.     E  E  E  E  E     W                   W                   W                 
-------------------------|-------------------|--3----------------|-------------------|
-------------------------|-------------------|--3----------------|-------------------|
--10---------------------|-------------------|--0----------------|--7----------------|
--10---------------------|--7----------------|--0----------------|--7----------------|
---8------0--1--3--------|--7----------------|-------------------|--5----------------|
-------------------1--3--|--5----------------|--3----------------|-------------------|


          PM PM PM PM PM                                                              
   Q.     E  E  E  E  E     W                   W                   W                 
-------------------------|-------------------|--3----------------|-------------------|
-------------------------|-------------------|--3----------------|-------------------|
--10---------------------|-------------------|--0----------------|--7----------------|
--10---------------------|--7----------------|--0----------------|--7----------------|
---8------0--1--3--------|--7----------------|-------------------|--5----------------|
-------------------1--3--|--5----------------|--3----------------|-------------------|


  PM PM PM PM PM PM         PM PM PM           PM               PM PM PM PM    PM PM         
  E  E  E  E  E  E  Q       E  S  S   E  E  E  E  E  E     Q    S  S  S  S  E  S  S  E   E   
-------------------------|------------------------------|-----------------------------------|
-------------------------|-----------10--9--L-----------|-----------------------------------|
-------------------------|------------9--9--L-----9--7--|--L----------------4--------2h--4--|
-------------------------|------------9--9--L-----9--7--|--L----------------4--------2h--4--|
--3--3--3--3--5-----5----|--0--0--0------------0--------|-------0--0--0--0-----0--0---------|
--1--1--1--1--3--3--3----|------------------------------|-----------------------------------|


  PM PM PM           PM PM               PM PM PM    PM PM    PM PM  
  E  S  S   E  E  E  S  S  E  E     Q    E  S  S  E  S  S  E  S  S   
---------------------------------|----------------------------------|
-----------10--9--L--------------|----------------------------------|
------------9--9--L--------9--7--|--L-------------4--------2--------|
------------9--9--L--------9--7--|--L-------------4--------2--------|
--0--0--0------------0--0--------|-------0--0--0-----0--0-----0--0--|
---------------------------------|----------------------------------|


  PM PM PM PM           PM PM               PM PM PM PM    PM PM         
  S  S  S  S   E  E  E  S  S  E  E     Q    S  S  S  S  E  S  S  E   E   
------------------------------------|-----------------------------------|
--------------10--9--L--------------|-----------------------------------|
---------------9--9--L--------9--7--|--L----------------4--------2h--4--|
---------------9--9--L--------9--7--|--L----------------4--------2h--4--|
--0--0--0--0------------0--0--------|-------0--0--0--0-----0--0---------|
------------------------------------|-----------------------------------|


  PM PM PM                                              PM PM    PM PM PM PM    PM PM PM PM  
  E  S  S   E  E  Q    E  E     H        H           E  S  S  E  S  S  S  S  E  S  S  S  S   
-----------------------------|--------------------|-----------------------------------------|
-----------10--9--L----------|--------------------|-----------------------------------------|
------------9--9--L----9--7--|--L--------9--------|-----------------------------------------|
------------9--9--L----9--7--|--L--------9--------|--------------------------4--------------|
--0--0--0-----------------5--|--L--------7--------|--4--------4--------------4--------------|
-----------------------------|-----------0--------|--2--2--2--2--2--2--2--2--2--2--2--2--2--|


     PM PM    PM PM PM PM    PM PM PM PM       PM PM    PM PM PM PM    PM PM PM PM  
  E  S  S  E  S  S  S  S  E  S  S  S  S     E  S  S  E  S  S  S  S  E  S  S  S  S   
-----------------------------------------|-----------------------------------------|
-----------------------------------------|-----------------------------------------|
-----------------------------------------|-----------------------------------------|
--------------------------4--------------|--------------------------4--------------|
--4--------4--------------4--------------|--4--------4--------------4--------------|
--2--2--2--2--2--2--2--2--2--2--2--2--2--|--2--2--2--2--2--2--2--2--2--2--2--2--2--|


     PM PM    PM PM                 PM PM    PM PM PM PM    PM PM PM PM  
  E  S  S  E  S  S  Q    Q       E  S  S  E  S  S  S  S  E  S  S  S  S   
------------------------------|-----------------------------------------|
------------------------------|-----------------------------------------|
------------------------------|-----------------------------------------|
--------------------2----2----|--------------------------4--------------|
--4--------4--------2----2----|--4--------4--------------4--------------|
--2--2--2--2--2--2--0----0----|--2--2--2--2--2--2--2--2--2--2--2--2--2--|


     PM PM    PM PM PM PM    PM PM                                                                 
  E  S  S  E  S  S  S  S  E  S  S  E     W                   W                   W                 
--------------------------5--------5--|-------------------|-------------------|-------------------|
--------------------------5--------5--|-------------------|-------------------|-------------------|
--------------------------------------|--7----------------|--9----------------|--9----------------|
--------------------------------------|--7----------------|--9----------------|--9----------------|
--4--------4--------------------------|--5----------------|--7----------------|--7----------------|
--2--2--2--2--2--2--2--2-----2--2-----|-------------------|-------------------|-------------------|


  Q    Q    Q    Q       Q    Q    Q    Q       Q    Q    Q    Q       Q    H        Q     
-------0---------0----|-------0----0---------|-------0---------0----|-------0-------------|
-------0---------0----|-------0----0---------|-------0---------0----|-------0-------------|
--7-------------------|-----------------9----|--7-------------------|----------------9----|
--7---------7---------|----------------------|--7---------7---------|----------------9----|
--5---------7---------|-----------------7----|--5---------7---------|----------------7----|
------------5---------|--0-------------------|------------5---------|--0------------------|


  Q    Q    Q    Q       Q    H        Q       Q    Q    Q    Q       W                  
-------0---------0----|-------0-------------|-------0---------0----|--------------------|
-------0---------0----|-------0-------------|-------0---------0----|--------------------|
--7-------------------|----------------9----|--7-------------------|--9\----------------|
--7---------7---------|----------------9----|--7---------7---------|--9\----------------|
--5---------7---------|----------------7----|--5---------7---------|--7\----------------|
------------5---------|--0------------------|------------5---------|--------------------|


                      PM PM PM                PM PM PM                         PM   PM              
  W                   E  E  E  E  H           E  E  E  E  S  S S  S  S S E     Q    E  E  H         
-------------------|-----------------------|--------------------------------|----------------------|
-------------------|-----------------------|--------------------------------|----------------------|
-------------------|-----------7--L--------|--------------------------------|----------7--L--------|
-------------------|--9-----9--7--L--------|--6--7---------------------7-9--|--9----9--7--L--------|
-------------------|--9-----9--5--L--------|--4--5-------------5h-7s-9------|--9----9--------------|
-------------------|--7--7--7--------------|--------0--0--5h-7--------------|--7----7--------------|


  PM PM PM PM                                 PM   PM                PM PM PM PM \2/  -/2   
               |--3-| |--3-|  |--3-| |-3-|                                                  
  E  E  E  E   S S  S S  S S  S  S S S S S    Q    E  E  H           E  E  E  E  Q    Q     
--------------10-7----7--------------------|----------------------|------------------------|
-------------------10---10-7-10p-7---7-----|----------------------|--------------0----0----|
-----------------------------------9---9-7-|----------7--L--------|------------------------|
--6--7-------------------------------------|--9----9--7--L--------|--6--7------------------|
--4--5-------------------------------------|--9----9--5--L--------|--4--5------------------|
--------0--0-------------------------------|--7----7--5-----------|--------0--0------------|


  PM   PM                PM PM PM PM                      PM   PM              
  Q    E  E  H           E  E  E  E   E    E   E    E     Q    E  E  H         
----------------------|--------------------------------|----------------------|
----------------------|--------------10---12--10---12--|----------------------|
----------7--L--------|--------------------------------|----------7--L--------|
--9----9--7--L--------|--6--7--7------7s---9---7s---9--|--9----9--7--L--------|
--9----9--5--L--------|--4--5--5-----------------------|--9----9--5--L--------|
--7----7--------------|-----------0--------------------|--7----7--------------|


  PM PM PM PM               PM   PM                PM PM PM    \1/       
  E  E  E  E   H            Q    E  E  H           E  E  E  E  H         
--------------19b--------|----------------------|-----------------------|
-------------------------|----------------------|-----------------------|
-------------------------|----------7--L--------|-----------------------|
--6--7-------------------|--9----9--7--L--------|--6--7-----------------|
--4--5-------------------|--9----9--5--L--------|--4--5-----------------|
--------0--0-------------|--7----7--------------|--------0--0--L--------|


  PM PM PM           PM               PM PM PM    PM PM           PM PM PM           PM        
  E  S  S   E  E  E  E  E  E     Q    E  S  S  E  S  S  E   E     E  S  S   E  E  E  E  E  E   
------------------------------|--------------------------------|------------------------------|
-----------10--9--L-----------|--------------------------------|-----------10--9--L-----------|
------------9--9--L-----9--7--|--L-------------4--------2h--4--|------------9--9--L-----9--7--|
------------9--9--L-----9--7--|--L-------------4--------2h--4--|------------9--9--L-----9--7--|
--0--0--0------------0--------|-------0--0--0-----0--0---------|--0--0--0------------0--------|
------------------------------|--------------------------------|------------------------------|


       PM PM PM    PM PM    PM PM    PM PM PM           PM               PM PM PM    PM PM         
  Q    E  S  S  E  S  S  E  S  S     E  S  S   E  E  E  E  E  E     Q    E  S  S  E  S  S  E   E   
----------------------------------|------------------------------|--------------------------------|
----------------------------------|-----------10--9--L-----------|--------------------------------|
--L-------------4--------2--------|------------9--9--L-----9--7--|--L-------------4--------2h--4--|
--L-------------4--------2--------|------------9--9--L-----9--7--|--L-------------4--------2h--4--|
-------0--0--0-----0--0-----0--0--|--0--0--0------------0--------|-------0--0--0-----0--0---------|
----------------------------------|------------------------------|--------------------------------|


  PM PM PM           PM               PM PM PM PM    PM PM    PM PM    PM PM PM           PM        
  E  S  S   E  E  E  E  E  E     Q    S  S  S  S  E  S  S  E  S  S     E  S  S   E  E  E  E  E  E   
------------------------------|-------------------------------------|------------------------------|
-----------10--9--L-----------|-------------------------------------|-----------10--9--L-----------|
------------9--9--L-----9--7--|--L----------------4--------2--------|------------9--9--L-----9--7--|
------------9--9--L-----9--7--|--L----------------4--------2--------|------------9--9--L-----9--7--|
--0--0--0------------0--------|-------0--0--0--0-----0--0-----0--0--|--0--0--0------------0--------|
------------------------------|-------------------------------------|------------------------------|


       PM PM PM    PM PM           PM PM PM           PM               PM PM PM    PM PM    PM PM  
  Q    E  S  S  E  S  S  E   E     E  S  S   E  E  E  E  E  E     Q    E  S  S  E  S  S  E  S  S   
--------------------------------|------------------------------|----------------------------------|
--------------------------------|-----------10--9--L-----------|----------------------------------|
--L-------------4--------2h--4--|------------9--9--L-----9--7--|--L-------------4--------2--------|
--L-------------4--------2h--4--|------------9--9--L-----9--7--|--L-------------4--------2--------|
-------0--0--0-----0--0---------|--0--0--0------------0--------|-------0--0--0-----0--0-----0--0--|
--------------------------------|------------------------------|----------------------------------|


  PM PM PM           PM               PM PM PM    PM PM           PM PM PM           PM        
  E  S  S   E  E  E  E  E  E     Q    E  S  S  E  S  S  E   E     E  S  S   E  E  E  E  E  E   
------------------------------|--------------------------------|------------------------------|
-----------10--9--L-----------|--------------------------------|-----------10--9--L-----------|
------------9--9--L-----9--7--|--L-------------4--------2h--4--|------------9--9--L-----9--7--|
------------9--9--L-----9--7--|--L-------------4--------2h--4--|------------9--9--L-----9--7--|
--0--0--0------------0--------|-------0--0--0-----0--0---------|--0--0--0------------0--------|
------------------------------|--------------------------------|------------------------------|


       PM PM PM    PM PM    PM PM    PM PM PM           PM               PM PM PM    PM PM         
  Q    E  S  S  E  S  S  E  S  S     E  S  S   E  E  E  E  E  E     Q    E  S  S  E  S  S  E   E   
----------------------------------|------------------------------|--------------------------------|
----------------------------------|-----------10--9--L-----------|--------------------------------|
--L-------------4--------2--------|------------9--9--L-----9--7--|--L-------------4--------2h--4--|
--L-------------4--------2--------|------------9--9--L-----9--7--|--L-------------4--------2h--4--|
-------0--0--0-----0--0-----0--0--|--0--0--0------------0--------|-------0--0--0-----0--0---------|
----------------------------------|------------------------------|--------------------------------|


  PM PM PM           PM               PM PM PM    PM PM    PM PM    PM PM PM           PM        
  E  S  S   E  E  E  E  E  E     Q    E  S  S  E  S  S  E  S  S     E  S  S   E  E  E  E  E  E   
------------------------------|----------------------------------|------------------------------|
-----------10--9--L-----------|----------------------------------|-----------10--9--L-----------|
------------9--9--L-----9--7--|--L-------------4--------2--------|------------9--9--L-----9--7--|
------------9--9--L-----9--7--|--L-------------4--------2--------|------------9--9--L-----9--7--|
--0--0--0------------0--------|-------0--0--0-----0--0-----0--0--|--0--0--0------------0--------|
------------------------------|----------------------------------|------------------------------|


       PM PM PM    PM PM           PM PM PM           PM               PM PM PM    PM PM    PM PM  
  Q    E  S  S  E  S  S  E   E     E  S  S   E  E  E  E  E  E     Q    E  S  S  E  S  S  E  S  S   
--------------------------------|------------------------------|----------------------------------|
--------------------------------|-----------10--9--L-----------|----------------------------------|
--L-------------4--------2h--4--|------------9--9--L-----9--7--|--L-------------4--------2--------|
--L-------------4--------2h--4--|------------9--9--L-----9--7--|--L-------------4--------2--------|
-------0--0--0-----0--0---------|--0--0--0------------0--------|-------0--0--0-----0--0-----0--0--|
--------------------------------|------------------------------|----------------------------------|


  PM PM PM           PM               PM PM PM    PM PM           PM PM PM           PM        
  E  S  S   E  E  E  E  E  E     Q    E  S  S  E  S  S  E   E     E  S  S   E  E  E  E  E  E   
------------------------------|--------------------------------|------------------------------|
-----------10--9--L-----------|--------------------------------|-----------10--9--L-----------|
------------9--9--L-----9--7--|--L-------------4--------2h--4--|------------9--9--L-----9--7--|
------------9--9--L-----9--7--|--L-------------4--------2h--4--|------------9--9--L-----9--7--|
--0--0--0------------0--------|-------0--0--0-----0--0---------|--0--0--0------------0--------|
------------------------------|--------------------------------|------------------------------|


       PM PM PM    PM PM    PM PM    PM PM PM           PM               PM PM PM    PM PM         
  Q    E  S  S  E  S  S  E  S  S     E  S  S   E  E  E  E  E  E     Q    E  S  S  E  S  S  E   E   
----------------------------------|------------------------------|--------------------------------|
----------------------------------|-----------10--9--L-----------|--------------------------------|
--L-------------4--------2--------|------------9--9--L-----9--7--|--L-------------4--------2h--4--|
--L-------------4--------2--------|------------9--9--L-----9--7--|--L-------------4--------2h--4--|
-------0--0--0-----0--0-----0--0--|--0--0--0------------0--------|-------0--0--0-----0--0---------|
----------------------------------|------------------------------|--------------------------------|


  PM PM PM           PM               PM PM PM    PM PM    PM PM    PM PM PM           PM        
  E  S  S   E  E  E  E  E  E     Q    E  S  S  E  S  S  E  S  S     E  S  S   E  E  E  E  E  E   
------------------------------|----------------------------------|------------------------------|
-----------10--9--L-----------|----------------------------------|-----------10--9--L-----------|
------------9--9--L-----9--7--|--L-------------4--------2--------|------------9--9--L-----9--7--|
------------9--9--L-----9--7--|--L-------------4--------2--------|------------9--9--L-----9--7--|
--0--0--0------------0--------|-------0--0--0-----0--0-----0--0--|--0--0--0------------0--------|
------------------------------|----------------------------------|------------------------------|


       PM PM PM    PM PM           PM PM PM           PM               PM PM PM    PM PM    PM PM  
  Q    E  S  S  E  S  S  E   E     E  S  S   E  E  E  E  E  E     Q    E  S  S  E  S  S  E  S  S   
--------------------------------|------------------------------|----------------------------------|
--------------------------------|-----------10--9--L-----------|----------------------------------|
--L-------------4--------2h--4--|------------9--9--L-----9--7--|--L-------------4--------2--------|
--L-------------4--------2h--4--|------------9--9--L-----9--7--|--L-------------4--------2--------|
-------0--0--0-----0--0---------|--0--0--0------------0--------|-------0--0--0-----0--0-----0--0--|
--------------------------------|------------------------------|----------------------------------|


  PM PM PM           PM               PM PM PM    PM PM    PM PM    PM PM PM           PM         
  E  S  S   E  E  E  E  E  E     Q    E  S  S  E  S  S  E  S  S     E  S  S   E  E  E  E  E  E    
------------------------------|----------------------------------|------------------------------||
-----------10--9--L-----------|----------------------------------|-----------10--9--L-----------||
------------9--9--L-----9--7--|--L-------------4--------2--------|------------9--9--L-----9--7--||
------------9--9--L-----9--7--|--L-------------4--------2--------|------------9--9--L-----9--7--||
--0--0--0------------0--------|-------0--0--0-----0--0-----0--0--|--0--0--0------------0--------||
------------------------------|----------------------------------|------------------------------||



Chorused Guitar

      W                   W                   W                   W                 
D#||-------------------|-------------------|-------------------|-------------------|
A#||-------------------|-------------------|-------------------|-------------------|
F#||-------------------|-------------------|-------------------|-------------------|
C#||-------------------|-------------------|-------------------|-------------------|
G#||-------------------|-------------------|-------------------|-------------------|
D#||-------------------|-------------------|-------------------|-------------------|


  W                   W                   W                   W                   W                 
-------------------|-------------------|-------------------|-------------------|-------------------|
-------------------|-------------------|-------------------|-------------------|-------------------|
-------------------|-------------------|-------------------|-------------------|-------------------|
-------------------|-------------------|-------------------|-------------------|-------------------|
-------------------|-------------------|-------------------|-------------------|-------------------|
-------------------|-------------------|-------------------|-------------------|-------------------|


  W                   W                   W                   W                   W                 
-------------------|-------------------|-------------------|-------------------|-------------------|
-------------------|-------------------|-------------------|-------------------|-------------------|
-------------------|-------------------|-------------------|-------------------|-------------------|
-------------------|-------------------|-------------------|-------------------|-------------------|
-------------------|-------------------|-------------------|-------------------|-------------------|
-------------------|-------------------|-------------------|-------------------|-------------------|


  W                   W                   W                   W                   W                 
-------------------|-------------------|-------------------|-------------------|-------------------|
-------------------|-------------------|-------------------|-------------------|-------------------|
-------------------|-------------------|-------------------|-------------------|-------------------|
-------------------|-------------------|-------------------|-------------------|-------------------|
-------------------|-------------------|-------------------|-------------------|-------------------|
-------------------|-------------------|-------------------|-------------------|-------------------|


  W                   W                   W                   W                   W                 
-------------------|-------------------|-------------------|-------------------|-------------------|
-------------------|-------------------|-------------------|-------------------|-------------------|
-------------------|-------------------|-------------------|-------------------|-------------------|
-------------------|-------------------|-------------------|-------------------|-------------------|
-------------------|-------------------|-------------------|-------------------|-------------------|
-------------------|-------------------|-------------------|-------------------|-------------------|


  W                   W                   W                   W                   W                 
-------------------|-------------------|-------------------|-------------------|-------------------|
-------------------|-------------------|-------------------|-------------------|-------------------|
-------------------|-------------------|-------------------|-------------------|-------------------|
-------------------|-------------------|-------------------|-------------------|-------------------|
-------------------|-------------------|-------------------|-------------------|-------------------|
-------------------|-------------------|-------------------|-------------------|-------------------|


  W                   W                   W                   W                   W                 
-------------------|-------------------|-------------------|-------------------|-------------------|
-------------------|-------------------|-------------------|-------------------|-------------------|
-------------------|-------------------|-------------------|-------------------|-------------------|
-------------------|-------------------|-------------------|-------------------|-------------------|
-------------------|-------------------|-------------------|-------------------|-------------------|
-------------------|-------------------|-------------------|-------------------|-------------------|


  W                   W                   W                   W                   W                 
-------------------|-------------------|-------------------|-------------------|-------------------|
-------------------|-------------------|-------------------|-------------------|-------------------|
-------------------|-------------------|-------------------|-------------------|-------------------|
-------------------|-------------------|-------------------|-------------------|-------------------|
-------------------|-------------------|-------------------|-------------------|-------------------|
-------------------|-------------------|-------------------|-------------------|-------------------|


  W                   W                   W                   W                   W                 
-------------------|-------------------|-------------------|-------------------|-------------------|
-------------------|-------------------|-------------------|-------------------|-------------------|
-------------------|-------------------|-------------------|-------------------|-------------------|
-------------------|-------------------|-------------------|-------------------|-------------------|
-------------------|-------------------|-------------------|-------------------|-------------------|
-------------------|-------------------|-------------------|-------------------|-------------------|


  W                   W                   W                   W                   W                 
-------------------|-------------------|-------------------|-------------------|-------------------|
-------------------|-------------------|-------------------|-------------------|-------------------|
-------------------|-------------------|-------------------|-------------------|-------------------|
-------------------|-------------------|-------------------|-------------------|-------------------|
-------------------|-------------------|-------------------|-------------------|-------------------|
-------------------|-------------------|-------------------|-------------------|-------------------|


  W                   W                   W                   W                   W                 
-------------------|-------------------|-------------------|-------------------|-------------------|
-------------------|-------------------|-------------------|-------------------|-------------------|
-------------------|-------------------|-------------------|-------------------|-------------------|
-------------------|-------------------|-------------------|-------------------|-------------------|
-------------------|-------------------|-------------------|-------------------|-------------------|
-------------------|-------------------|-------------------|-------------------|-------------------|


  W                   W                   Q.     S  S S  S  E    S S  E   
-------------------|-------------------|---------------------------------|
-------------------|-------------------|--2------------------------------|
-------------------|-------------------|--2-----------2h-4p-2--4g2-------|
-------------------|-------------------|--2------2h-4--------------4p-2--|
-------------------|-------------------|--0------------------------------|
-------------------|-------------------|---------------------------------|


  Q.     S  S S  S  E  Q       Q.     E  Q    Q       Q.     E  E  E  E  E   
--3-------------------------|---------2--2----0----|--3---------------------|
--3-------------------------|--3-------------------|--1---------------------|
--0-----------2h-4p-2--L----|--2-------------------|--0---------------------|
---------2h-4---------------|--0-------------------|--3---------------------|
----------------------------|----------------------|---------0--1--3--------|
----------------------------|----------------------|------------------1--3--|


  Q.     S  S S  S  E  S  S  E     Q.     S  S S  S  S S S S  E     Q.     E   Q    Q     
--------------------------------|--3-----------------------------|-----------------------|
--2-----------------------------|--3-----------------------------|--3--------------------|
--2-----------2h-4p-2-----------|--0-----------2h-4p-2-----------|--2------4b--L----2----|
--2------2h-4----------2h-4p-2--|---------2h-4---------4-L-2p-0--|--0--------------------|
--0-----------------------------|--------------------------------|-----------------------|
--------------------------------|--------------------------------|--2--------------------|


  Q.     E  E  E  E  E     Q.     S  S S  S  E  S  S  E     Q.     S  S S  S  E  S S  E   
--3---------------------|--------------------------------|--3----------------------------|
--1---------------------|--2-----------------------------|--3----------------------------|
--0---------------------|--2-----------2h-4p-2-----------|--0-----------2h-4p-2--2-------|
--3---------------------|--2------2h-4----------2h-4p-2--|---------2h-4------------4p-2--|
---------0--1--3--------|--0-----------------------------|-------------------------------|
------------------1--3--|--------------------------------|-------------------------------|


  Q.     S S  Q     Q        Q.     E  E  E  E  E     Q.     S  S S  S  E    S S  E   
-----------0h-2p----0----|---8---------------------|---------------------------------|
--3------3---------------|---8---------------------|--2------------------------------|
--2----------------------|--10---------------------|--2-----------2h-4p-2--4g2-------|
--0----------------------|--10---------------------|--2------2h-4--------------4p-2--|
-------------------------|---8------0--1--3--------|--0------------------------------|
-------------------------|-------------------1--3--|---------------------------------|


                                                                          |--3--|     
  Q.     S  S S  S  E  Q       Q.     S S  Q     Q       H        E    E  S  S  S E   
--3-------------------------|-----------0h-2p----0----|--3---------------------------|
--3-------------------------|--3------3---------------|--6---------------------------|
--0-----------2h-4p-2--L----|--2----------------------|--5-----------5g7--5h-7p-5----|
---------2h-4---------------|--4----------------------|--3------------------------7--|
----------------------------|-------------------------|------------------------------|
----------------------------|-------------------------|------------------------------|


  Q.     S  S S  S  E    S S  E     Q.     S  S S  S  E  S S  E     Q.     E   Q    Q     
---------------------------------|--3----------------------------|-----------------------|
--2------------------------------|--3----------------------------|--3--------------------|
--2-----------2h-4p-2--4g2-------|--0-----------2h-4p-2--2-------|--2------4b--L----2----|
--2------2h-4--------------4p-2--|---------2h-4------------4p-2--|--0--------------------|
--0------------------------------|-------------------------------|-----------------------|
---------------------------------|-------------------------------|--2--------------------|


  W                   W                   W                   W                   W                 
--3----------------|-------------------|-------------------|-------------------|-------------------|
--1----------------|-------------------|-------------------|-------------------|-------------------|
--2----------------|-------------------|-------------------|-------------------|-------------------|
--3----------------|-------------------|-------------------|-------------------|-------------------|
-------------------|-------------------|-------------------|-------------------|-------------------|
-------------------|-------------------|-------------------|-------------------|-------------------|


  W                   W                   W                   W                   W                 
-------------------|-------------------|-------------------|-------------------|-------------------|
-------------------|-------------------|-------------------|-------------------|-------------------|
-------------------|-------------------|-------------------|-------------------|-------------------|
-------------------|-------------------|-------------------|-------------------|-------------------|
-------------------|-------------------|-------------------|-------------------|-------------------|
-------------------|-------------------|-------------------|-------------------|-------------------|


  W                   W                   W                   W                   W                 
-------------------|-------------------|-------------------|-------------------|-------------------|
-------------------|-------------------|-------------------|-------------------|-------------------|
-------------------|-------------------|-------------------|-------------------|-------------------|
-------------------|-------------------|-------------------|-------------------|-------------------|
-------------------|-------------------|-------------------|-------------------|-------------------|
-------------------|-------------------|-------------------|-------------------|-------------------|


  W                   W                   W                   W                   W                 
-------------------|-------------------|-------------------|-------------------|-------------------|
-------------------|-------------------|-------------------|-------------------|-------------------|
-------------------|-------------------|-------------------|-------------------|-------------------|
-------------------|-------------------|-------------------|-------------------|-------------------|
-------------------|-------------------|-------------------|-------------------|-------------------|
-------------------|-------------------|-------------------|-------------------|-------------------|


  W                   W                   W                   W                   W                 
-------------------|-------------------|-------------------|-------------------|-------------------|
-------------------|-------------------|-------------------|-------------------|-------------------|
-------------------|-------------------|-------------------|-------------------|-------------------|
-------------------|-------------------|-------------------|-------------------|-------------------|
-------------------|-------------------|-------------------|-------------------|-------------------|
-------------------|-------------------|-------------------|-------------------|-------------------|


  W                   W                   W                   W                   W                 
-------------------|-------------------|-------------------|-------------------|-------------------|
-------------------|-------------------|-------------------|-------------------|-------------------|
-------------------|-------------------|-------------------|-------------------|-------------------|
-------------------|-------------------|-------------------|-------------------|-------------------|
-------------------|-------------------|-------------------|-------------------|-------------------|
-------------------|-------------------|-------------------|-------------------|-------------------|


  W                   W                   W                   W                   W                 
-------------------|-------------------|-------------------|-------------------|-------------------|
-------------------|-------------------|-------------------|-------------------|-------------------|
-------------------|-------------------|-------------------|-------------------|-------------------|
-------------------|-------------------|-------------------|-------------------|-------------------|
-------------------|-------------------|-------------------|-------------------|-------------------|
-------------------|-------------------|-------------------|-------------------|-------------------|


  W                   W                   W                   W                   W                 
-------------------|-------------------|-------------------|-------------------|-------------------|
-------------------|-------------------|-------------------|-------------------|-------------------|
-------------------|-------------------|-------------------|-------------------|-------------------|
-------------------|-------------------|-------------------|-------------------|-------------------|
-------------------|-------------------|-------------------|-------------------|-------------------|
-------------------|-------------------|-------------------|-------------------|-------------------|


  W                   W                   W                   W                   W                 
-------------------|-------------------|-------------------|-------------------|-------------------|
-------------------|-------------------|-------------------|-------------------|-------------------|
-------------------|-------------------|-------------------|-------------------|-------------------|
-------------------|-------------------|-------------------|-------------------|-------------------|
-------------------|-------------------|-------------------|-------------------|-------------------|
-------------------|-------------------|-------------------|-------------------|-------------------|


  W                   W                   W                   W                   W                 
-------------------|-------------------|-------------------|-------------------|-------------------|
-------------------|-------------------|-------------------|-------------------|-------------------|
-------------------|-------------------|-------------------|-------------------|-------------------|
-------------------|-------------------|-------------------|-------------------|-------------------|
-------------------|-------------------|-------------------|-------------------|-------------------|
-------------------|-------------------|-------------------|-------------------|-------------------|


  W                   W                   W                   W                   W                 
-------------------|-------------------|-------------------|-------------------|-------------------|
-------------------|-------------------|-------------------|-------------------|-------------------|
-------------------|-------------------|-------------------|-------------------|-------------------|
-------------------|-------------------|-------------------|-------------------|-------------------|
-------------------|-------------------|-------------------|-------------------|-------------------|
-------------------|-------------------|-------------------|-------------------|-------------------|


  W                   W                   W                   W                   W                 
-------------------|-------------------|-------------------|-------------------|-------------------|
-------------------|-------------------|-------------------|-------------------|-------------------|
-------------------|-------------------|-------------------|-------------------|-------------------|
-------------------|-------------------|-------------------|-------------------|-------------------|
-------------------|-------------------|-------------------|-------------------|-------------------|
-------------------|-------------------|-------------------|-------------------|-------------------|


  W                   W                   W                   W                   W                 
-------------------|-------------------|-------------------|-------------------|-------------------|
-------------------|-------------------|-------------------|-------------------|-------------------|
-------------------|-------------------|-------------------|-------------------|-------------------|
-------------------|-------------------|-------------------|-------------------|-------------------|
-------------------|-------------------|-------------------|-------------------|-------------------|
-------------------|-------------------|-------------------|-------------------|-------------------|


  W                   W                   W                   W                   W                 
-------------------|-------------------|-------------------|-------------------|-------------------|
-------------------|-------------------|-------------------|-------------------|-------------------|
-------------------|-------------------|-------------------|-------------------|-------------------|
-------------------|-------------------|-------------------|-------------------|-------------------|
-------------------|-------------------|-------------------|-------------------|-------------------|
-------------------|-------------------|-------------------|-------------------|-------------------|


  W                   W                   W                   W                   W                 
-------------------|-------------------|-------------------|-------------------|-------------------|
-------------------|-------------------|-------------------|-------------------|-------------------|
-------------------|-------------------|-------------------|-------------------|-------------------|
-------------------|-------------------|-------------------|-------------------|-------------------|
-------------------|-------------------|-------------------|-------------------|-------------------|
-------------------|-------------------|-------------------|-------------------|-------------------|

                       
  W                   W                                           W                  
-------------------|-------------------------------------------|-------------------||
-------------------|-------------------------------------------|-------------------||
-------------------|-------------------------------------------|-------------------||
-------------------|-------------------------------------------|-------------------||
-------------------|-------------------------------------------|-------------------||
-------------------|-------------------------------------------|-------------------||



Lead 1

      W                   W                   W                   W                 
D#||-------------------|-------------------|-------------------|-------------------|
A#||-------------------|-------------------|-------------------|-------------------|
F#||-------------------|-------------------|-------------------|-------------------|
C#||-------------------|-------------------|-------------------|-------------------|
G#||-------------------|-------------------|-------------------|-------------------|
D#||-------------------|-------------------|-------------------|-------------------|


  W                   W                   W                   W                   W                 
-------------------|-------------------|-------------------|-------------------|-------------------|
-------------------|-------------------|-------------------|-------------------|-------------------|
-------------------|-------------------|-------------------|-------------------|-------------------|
-------------------|-------------------|-------------------|-------------------|-------------------|
-------------------|-------------------|-------------------|-------------------|-------------------|
-------------------|-------------------|-------------------|-------------------|-------------------|


  W                   W                   W                   W                   W                 
-------------------|-------------------|-------------------|-------------------|-------------------|
-------------------|-------------------|-------------------|-------------------|-------------------|
-------------------|-------------------|-------------------|-------------------|-------------------|
-------------------|-------------------|-------------------|-------------------|-------------------|
-------------------|-------------------|-------------------|-------------------|-------------------|
-------------------|-------------------|-------------------|-------------------|-------------------|


  W                   W                   W                   W                   W                 
-------------------|-------------------|-------------------|-------------------|-------------------|
-------------------|-------------------|-------------------|-------------------|-------------------|
-------------------|-------------------|-------------------|-------------------|-------------------|
-------------------|-------------------|-------------------|-------------------|-------------------|
-------------------|-------------------|-------------------|-------------------|-------------------|
-------------------|-------------------|-------------------|-------------------|-------------------|


  W                   W                   W                   W                   W                 
-------------------|-------------------|-------------------|-------------------|-------------------|
-------------------|-------------------|-------------------|-------------------|-------------------|
-------------------|-------------------|-------------------|-------------------|-------------------|
-------------------|-------------------|-------------------|-------------------|-------------------|
-------------------|-------------------|-------------------|-------------------|-------------------|
-------------------|-------------------|-------------------|-------------------|-------------------|


  W                   W                   W                   W                   W                 
-------------------|-------------------|-------------------|-------------------|-------------------|
-------------------|-------------------|-------------------|-------------------|-------------------|
-------------------|-------------------|-------------------|-------------------|-------------------|
-------------------|-------------------|-------------------|-------------------|-------------------|
-------------------|-------------------|-------------------|-------------------|-------------------|
-------------------|-------------------|-------------------|-------------------|-------------------|


  W                   W                   W                   W                   W                 
-------------------|-------------------|-------------------|-------------------|-------------------|
-------------------|-------------------|-------------------|-------------------|-------------------|
-------------------|-------------------|-------------------|-------------------|-------------------|
-------------------|-------------------|-------------------|-------------------|-------------------|
-------------------|-------------------|-------------------|-------------------|-------------------|
-------------------|-------------------|-------------------|-------------------|-------------------|


  W                   W                   W                   W                   W                 
-------------------|-------------------|-------------------|-------------------|-------------------|
-------------------|-------------------|-------------------|-------------------|-------------------|
-------------------|-------------------|-------------------|-------------------|-------------------|
-------------------|-------------------|-------------------|-------------------|-------------------|
-------------------|-------------------|-------------------|-------------------|-------------------|
-------------------|-------------------|-------------------|-------------------|-------------------|


  W                   W                   W                   W                   W                 
-------------------|-------------------|-------------------|-------------------|-------------------|
-------------------|-------------------|-------------------|-------------------|-------------------|
-------------------|-------------------|-------------------|-------------------|-------------------|
-------------------|-------------------|-------------------|-------------------|-------------------|
-------------------|-------------------|-------------------|-------------------|-------------------|
-------------------|-------------------|-------------------|-------------------|-------------------|


  W                   W                   W                   W                   W                 
-------------------|-------------------|-------------------|-------------------|-------------------|
-------------------|-------------------|-------------------|-------------------|-------------------|
-------------------|-------------------|-------------------|-------------------|-------------------|
-------------------|-------------------|-------------------|-------------------|-------------------|
-------------------|-------------------|-------------------|-------------------|-------------------|
-------------------|-------------------|-------------------|-------------------|-------------------|


  W                   W                   W                   W                   W                 
-------------------|-------------------|-------------------|-------------------|-------------------|
-------------------|-------------------|-------------------|-------------------|-------------------|
-------------------|-------------------|-------------------|-------------------|-------------------|
-------------------|-------------------|-------------------|-------------------|-------------------|
-------------------|-------------------|-------------------|-------------------|-------------------|
-------------------|-------------------|-------------------|-------------------|-------------------|


  W                   W                   W                   W                   W                 
-------------------|-------------------|-------------------|-------------------|-------------------|
-------------------|-------------------|-------------------|-------------------|-------------------|
-------------------|-------------------|-------------------|-------------------|-------------------|
-------------------|-------------------|-------------------|-------------------|-------------------|
-------------------|-------------------|-------------------|-------------------|-------------------|
-------------------|-------------------|-------------------|-------------------|-------------------|


  W                   W                   W                   W                   W                 
-------------------|-------------------|-------------------|-------------------|-------------------|
-------------------|-------------------|-------------------|-------------------|-------------------|
-------------------|-------------------|-------------------|-------------------|-------------------|
-------------------|-------------------|-------------------|-------------------|-------------------|
-------------------|-------------------|-------------------|-------------------|-------------------|
-------------------|-------------------|-------------------|-------------------|-------------------|


  W                   W                   W                   W                   W                 
-------------------|-------------------|-------------------|-------------------|-------------------|
-------------------|-------------------|-------------------|-------------------|-------------------|
-------------------|-------------------|-------------------|-------------------|-------------------|
-------------------|-------------------|-------------------|-------------------|-------------------|
-------------------|-------------------|-------------------|-------------------|-------------------|
-------------------|-------------------|-------------------|-------------------|-------------------|


  W                   W                   W                   W                   W                 
-------------------|-------------------|-------------------|-------------------|-------------------|
-------------------|-------------------|-------------------|-------------------|-------------------|
-------------------|-------------------|-------------------|-------------------|-------------------|
-------------------|-------------------|-------------------|-------------------|-------------------|
-------------------|-------------------|-------------------|-------------------|-------------------|
-------------------|-------------------|-------------------|-------------------|-------------------|


  W                   W                   W                   W                   W                 
-------------------|-------------------|-------------------|-------------------|-------------------|
-------------------|-------------------|-------------------|-------------------|-------------------|
-------------------|-------------------|-------------------|-------------------|-------------------|
-------------------|-------------------|-------------------|-------------------|-------------------|
-------------------|-------------------|-------------------|-------------------|-------------------|
-------------------|-------------------|-------------------|-------------------|-------------------|


  W                   W                   W                   W                 
-------------------|-------------------|-------------------|-------------------|
-------------------|-------------------|-------------------|-------------------|
-------------------|-------------------|-------------------|-------------------|
-------------------|-------------------|-------------------|-------------------|
-------------------|-------------------|-------------------|-------------------|
-------------------|-------------------|-------------------|-------------------|


  Q    E  S S Q    S E.      W                   H.             E  E     Q    Q    Q    Q     
--------------------------|-------------------|-----------------------|----------------------|
--------------------------|-------------------|-----------------------|----------------------|
----------4-4-4----4-4b---|--L----------------|--4pb------------L--2--|--1--------------1----|
--------------------------|-------------------|-----------------------|-------2----4---------|
--------------------------|-------------------|-----------------------|----------------------|
--------------------------|-------------------|-----------------------|----------------------|


  Q    E   E  E   E  Q       E   E   E  E   Q    Q         Q      E   E      E   E   E    E   
--------------------------|----------------------------|---------------------------------17--|
--------------5h--7--5----|------7--10-----------------|---------17-----------------17b------|
--2----4h--6--------------|--9b---------9b--L----L~----|--16b--------16pbr---L--14-----------|
--------------------------|----------------------------|-------------------------------------|
--------------------------|----------------------------|-------------------------------------|
--------------------------|----------------------------|-------------------------------------|


   Q        E   E   E   E   Q         H.               E   E      W                 
-----------14--16--17--19--19b----|--19pbr-------------L--17--|--16----------------|
--17pbr---------------------------|---------------------------|--------------------|
----------------------------------|---------------------------|--------------------|
----------------------------------|---------------------------|--------------------|
----------------------------------|---------------------------|--------------------|
----------------------------------|---------------------------|--------------------|


  W                   W                   W                   W                   W                 
-------------------|-------------------|-------------------|-------------------|-------------------|
-------------------|-------------------|-------------------|-------------------|-------------------|
-------------------|-------------------|-------------------|-------------------|-------------------|
-------------------|-------------------|-------------------|-------------------|-------------------|
-------------------|-------------------|-------------------|-------------------|-------------------|
-------------------|-------------------|-------------------|-------------------|-------------------|


  W                   W                   W                   W                   W                 
-------------------|-------------------|-------------------|-------------------|-------------------|
-------------------|-------------------|-------------------|-------------------|-------------------|
-------------------|-------------------|-------------------|-------------------|-------------------|
-------------------|-------------------|-------------------|-------------------|-------------------|
-------------------|-------------------|-------------------|-------------------|-------------------|
-------------------|-------------------|-------------------|-------------------|-------------------|


  W                   W                   W                   W                   W                 
-------------------|-------------------|-------------------|-------------------|-------------------|
-------------------|-------------------|-------------------|-------------------|-------------------|
-------------------|-------------------|-------------------|-------------------|-------------------|
-------------------|-------------------|-------------------|-------------------|-------------------|
-------------------|-------------------|-------------------|-------------------|-------------------|
-------------------|-------------------|-------------------|-------------------|-------------------|


  W                   W                   W                   W                   W                 
-------------------|-------------------|-------------------|-------------------|-------------------|
-------------------|-------------------|-------------------|-------------------|-------------------|
-------------------|-------------------|-------------------|-------------------|-------------------|
-------------------|-------------------|-------------------|-------------------|-------------------|
-------------------|-------------------|-------------------|-------------------|-------------------|
-------------------|-------------------|-------------------|-------------------|-------------------|


  W                   W                   W                   W                   W                 
-------------------|-------------------|-------------------|-------------------|-------------------|
-------------------|-------------------|-------------------|-------------------|-------------------|
-------------------|-------------------|-------------------|-------------------|-------------------|
-------------------|-------------------|-------------------|-------------------|-------------------|
-------------------|-------------------|-------------------|-------------------|-------------------|
-------------------|-------------------|-------------------|-------------------|-------------------|


  W                   W                   W                   W                 
-------------------|-------------------|-------------------|-------------------|
-------------------|-------------------|-------------------|-------------------|
-------------------|-------------------|-------------------|-------------------|
-------------------|-------------------|-------------------|-------------------|
-------------------|-------------------|-------------------|-------------------|
-------------------|-------------------|-------------------|-------------------|


  H        Q    E   E       H.            E   E      H.            Q     
------------------------|------------------------|----------------------|
------------------------|------------------------|--14~-----------------|
-------------------16b--|---L-------------L--16--|----------------------|
------------------------|------------------------|----------------------|
------------------------|------------------------|----------------------|
------------------------|------------------------|----------------------|


                              \0/                                                             
  E   E   S  E.   E.   S  E   E      W                   Q    E   S  S  S  S  S  S  S  S  E   
---------------------------------|--------------------|--------------------------------------|
-----14---L-14---14---14--L--14--|---L----------------|----------14-15-17-15-14----14--------|
---------------------------------|--------------------|-------------------------16----16-14--|
---------------------------------|--------------------|--------------------------------------|
---------------------------------|--------------------|--------------------------------------|
---------------------------------|--------------------|--------------------------------------|


   H         E   E   E   E      H        E   E   E   E      Q     E    E   H         
----------------------------|---------------17----------|---------------------------|
----------------------------|---------------------------|--------17b---L---L--------|
----------------------------|-----------------------14--|---L-----------------------|
----------------------------|-------------------16------|---------------------------|
--16---------L--17---L--17--|---L-----------------------|---------------------------|
----------------------------|---------------------------|---------------------------|


   Q.      E    Q     Q         W                    Q    E   E    E   E    S  E.    
----------------------------|--------------------|-----------17b---L--17b---L-17b---|
---L------17b---L----17b----|--17----------------|---L------------------------------|
----------------------------|--------------------|----------------------------------|
----------------------------|--------------------|----------------------------------|
----------------------------|--------------------|----------------------------------|
----------------------------|--------------------|----------------------------------|


   Q.       E   E   E   E   E      Q      Q    Q    E   E      Q      H.             
--17b-------L---L---L---L---L--|--17b~-----------------19--|---Lb-----L~------------|
-------------------------------|---------------------------|------------------------|
-------------------------------|---------------------------|------------------------|
-------------------------------|---------------------------|------------------------|
-------------------------------|---------------------------|------------------------|
-------------------------------|---------------------------|------------------------|


                  \1/         \2/                                     \1/                   
   H           E  E   Q       W                   W                   H        E  E  E  E   
--19b~--------19-----------|-------------------|-------------------|-----------------------|
---------------------------|-------------------|-------------------|-----------------------|
------------------0---L----|--0----------------|--L----------------|--0-----------7--6-----|
---------------------------|-------------------|-------------------|-----------9--------9--|
---------------------------|-------------------|-------------------|-----------------------|
---------------------------|-------------------|-------------------|-----------------------|


  E  E  E   E   E   E   E   E      H         E  E   E   E      H         E   E   E    E   
-------------------------------|---------------------------|-----------------------------|
-------------------------------|-----------------------10--|---L---------L--10--12b--10--|
-------------------------------|----------------9--11------|-----------------------------|
--L--7--9--11---L--12--14--12--|---L---------L-------------|-----------------------------|
-------------------------------|---------------------------|-----------------------------|
-------------------------------|---------------------------|-----------------------------|


                                    \0/                                                         
   W                    H        E  E   Q        W                     H        E   E   E   E   
---------------------|-----------------------|---------------------|---------------------------|
--10~----------------|-----------------------|---------------------|---------------------------|
---------------------|--------------0---L----|--16b----------------|---L-----------14--13--14--|
---------------------|-----------------------|---------------------|---------------------------|
---------------------|-----------------------|---------------------|---------------------------|
---------------------|-----------------------|---------------------|---------------------------|


                                                          |------3------|      |------3------|      
   W                    Q.      E    E   E    S  E.       Q      Q      Q      Q      Q      Q      
--------------------|----------19b---L--19b---L-19b---|--19b----19b----19b----19b----19b----19b----|
--------------------|---------------------------------|--------------------------------------------|
--14----------------|---L-----------------------------|--------------------------------------------|
--------------------|---------------------------------|--------------------------------------------|
--------------------|---------------------------------|--------------------------------------------|
--------------------|---------------------------------|--------------------------------------------|

                              
   H.                                       E   E      W                  
--19br-------------------------------------19--17--|--17----------------||
---------------------------------------------------|--------------------||
---------------------------------------------------|--------------------||
---------------------------------------------------|--------------------||
---------------------------------------------------|--------------------||
---------------------------------------------------|--------------------||



Lead 2

      W                   W                   W                   W                 
D#||-------------------|-------------------|-------------------|-------------------|
A#||-------------------|-------------------|-------------------|-------------------|
F#||-------------------|-------------------|-------------------|-------------------|
C#||-------------------|-------------------|-------------------|-------------------|
G#||-------------------|-------------------|-------------------|-------------------|
D#||-------------------|-------------------|-------------------|-------------------|


  W                   W                   W                   W                   W                 
-------------------|-------------------|-------------------|-------------------|-------------------|
-------------------|-------------------|-------------------|-------------------|-------------------|
-------------------|-------------------|-------------------|-------------------|-------------------|
-------------------|-------------------|-------------------|-------------------|-------------------|
-------------------|-------------------|-------------------|-------------------|-------------------|
-------------------|-------------------|-------------------|-------------------|-------------------|


  W                   W                   W                   W                   W                 
-------------------|-------------------|-------------------|-------------------|-------------------|
-------------------|-------------------|-------------------|-------------------|-------------------|
-------------------|-------------------|-------------------|-------------------|-------------------|
-------------------|-------------------|-------------------|-------------------|-------------------|
-------------------|-------------------|-------------------|-------------------|-------------------|
-------------------|-------------------|-------------------|-------------------|-------------------|


  W                   W                   W                   W                   W                 
-------------------|-------------------|-------------------|-------------------|-------------------|
-------------------|-------------------|-------------------|-------------------|-------------------|
-------------------|-------------------|-------------------|-------------------|-------------------|
-------------------|-------------------|-------------------|-------------------|-------------------|
-------------------|-------------------|-------------------|-------------------|-------------------|
-------------------|-------------------|-------------------|-------------------|-------------------|


  W                   W                   W                   W                   W                 
-------------------|-------------------|-------------------|-------------------|-------------------|
-------------------|-------------------|-------------------|-------------------|-------------------|
-------------------|-------------------|-------------------|-------------------|-------------------|
-------------------|-------------------|-------------------|-------------------|-------------------|
-------------------|-------------------|-------------------|-------------------|-------------------|
-------------------|-------------------|-------------------|-------------------|-------------------|


  W                   W                   W                   W                   W                 
-------------------|-------------------|-------------------|-------------------|-------------------|
-------------------|-------------------|-------------------|-------------------|-------------------|
-------------------|-------------------|-------------------|-------------------|-------------------|
-------------------|-------------------|-------------------|-------------------|-------------------|
-------------------|-------------------|-------------------|-------------------|-------------------|
-------------------|-------------------|-------------------|-------------------|-------------------|


  W                   W                   W                   W                   W                 
-------------------|-------------------|-------------------|-------------------|-------------------|
-------------------|-------------------|-------------------|-------------------|-------------------|
-------------------|-------------------|-------------------|-------------------|-------------------|
-------------------|-------------------|-------------------|-------------------|-------------------|
-------------------|-------------------|-------------------|-------------------|-------------------|
-------------------|-------------------|-------------------|-------------------|-------------------|


  W                   W                   W                   W                   W                 
-------------------|-------------------|-------------------|-------------------|-------------------|
-------------------|-------------------|-------------------|-------------------|-------------------|
-------------------|-------------------|-------------------|-------------------|-------------------|
-------------------|-------------------|-------------------|-------------------|-------------------|
-------------------|-------------------|-------------------|-------------------|-------------------|
-------------------|-------------------|-------------------|-------------------|-------------------|


  W                   W                   W                   W                   W                 
-------------------|-------------------|-------------------|-------------------|-------------------|
-------------------|-------------------|-------------------|-------------------|-------------------|
-------------------|-------------------|-------------------|-------------------|-------------------|
-------------------|-------------------|-------------------|-------------------|-------------------|
-------------------|-------------------|-------------------|-------------------|-------------------|
-------------------|-------------------|-------------------|-------------------|-------------------|


  W                   W                   W                   W                   W                 
-------------------|-------------------|-------------------|-------------------|-------------------|
-------------------|-------------------|-------------------|-------------------|-------------------|
-------------------|-------------------|-------------------|-------------------|-------------------|
-------------------|-------------------|-------------------|-------------------|-------------------|
-------------------|-------------------|-------------------|-------------------|-------------------|
-------------------|-------------------|-------------------|-------------------|-------------------|


  W                   W                   W                   W                   W                 
-------------------|-------------------|-------------------|-------------------|-------------------|
-------------------|-------------------|-------------------|-------------------|-------------------|
-------------------|-------------------|-------------------|-------------------|-------------------|
-------------------|-------------------|-------------------|-------------------|-------------------|
-------------------|-------------------|-------------------|-------------------|-------------------|
-------------------|-------------------|-------------------|-------------------|-------------------|


  W                   W                   W                   W                   W                 
-------------------|-------------------|-------------------|-------------------|-------------------|
-------------------|-------------------|-------------------|-------------------|-------------------|
-------------------|-------------------|-------------------|-------------------|-------------------|
-------------------|-------------------|-------------------|-------------------|-------------------|
-------------------|-------------------|-------------------|-------------------|-------------------|
-------------------|-------------------|-------------------|-------------------|-------------------|


  W                   W                   W                   W                   W                 
-------------------|-------------------|-------------------|-------------------|-------------------|
-------------------|-------------------|-------------------|-------------------|-------------------|
-------------------|-------------------|-------------------|-------------------|-------------------|
-------------------|-------------------|-------------------|-------------------|-------------------|
-------------------|-------------------|-------------------|-------------------|-------------------|
-------------------|-------------------|-------------------|-------------------|-------------------|


  W                   W                   W                   W                   W                 
-------------------|-------------------|-------------------|-------------------|-------------------|
-------------------|-------------------|-------------------|-------------------|-------------------|
-------------------|-------------------|-------------------|-------------------|-------------------|
-------------------|-------------------|-------------------|-------------------|-------------------|
-------------------|-------------------|-------------------|-------------------|-------------------|
-------------------|-------------------|-------------------|-------------------|-------------------|


  W                   W                   W                   W                   W                 
-------------------|-------------------|-------------------|-------------------|-------------------|
-------------------|-------------------|-------------------|-------------------|-------------------|
-------------------|-------------------|-------------------|-------------------|-------------------|
-------------------|-------------------|-------------------|-------------------|-------------------|
-------------------|-------------------|-------------------|-------------------|-------------------|
-------------------|-------------------|-------------------|-------------------|-------------------|


  W                   W                   W                   W                   W                 
-------------------|-------------------|-------------------|-------------------|-------------------|
-------------------|-------------------|-------------------|-------------------|-------------------|
-------------------|-------------------|-------------------|-------------------|-------------------|
-------------------|-------------------|-------------------|-------------------|-------------------|
-------------------|-------------------|-------------------|-------------------|-------------------|
-------------------|-------------------|-------------------|-------------------|-------------------|


  W                   W                   W                   W                   W                 
-------------------|-------------------|-------------------|-------------------|-------------------|
-------------------|-------------------|-------------------|-------------------|-------------------|
-------------------|-------------------|-------------------|-------------------|-------------------|
-------------------|-------------------|-------------------|-------------------|-------------------|
-------------------|-------------------|-------------------|-------------------|-------------------|
-------------------|-------------------|-------------------|-------------------|-------------------|


  W                   W                   W                   W                   W                 
-------------------|-------------------|-------------------|-------------------|-------------------|
-------------------|-------------------|-------------------|-------------------|-------------------|
-------------------|-------------------|-------------------|-------------------|-------------------|
-------------------|-------------------|-------------------|-------------------|-------------------|
-------------------|-------------------|-------------------|-------------------|-------------------|
-------------------|-------------------|-------------------|-------------------|-------------------|


  W                   W                   H        Q    E  E     H.           E  E   
-------------------|-------------------|----------------------|---------------------|
-------------------|-------------------|----------------------|---------------------|
-------------------|-------------------|-------------------9--|--9------------L--x--|
-------------------|-------------------|----------------------|---------------------|
-------------------|-------------------|-------------------7--|--7------------L--x--|
-------------------|-------------------|----------------------|---------------------|


   H         H            H         Q    Q        H         H            H.            E  E   
----------------------|-----------------------|----------------------|-----------------------|
----------------------|-----------------------|----------------------|-----------------------|
--11--------14--------|--13--------11----9----|--11--------14--------|--13------------11--9--|
----------------------|-----------------------|----------------------|-----------------------|
---9--------12--------|--11---------9----7----|---9--------12--------|--11-------------9--7--|
----------------------|-----------------------|----------------------|-----------------------|


   H         H            H         Q    Q        H         H            H        H         
----------------------|-----------------------|----------------------|---------------------|
----------------------|-----------------------|----------------------|---------------------|
--11--------14--------|--13--------11----9----|--11--------14--------|--13-----------------|
----------------------|-----------------------|----------------------|---------------------|
---9--------12--------|--11---------9----7----|---9--------12--------|--11-----------------|
----------------------|-----------------------|----------------------|---------------------|


  W                   W                   W                   W                   W                 
-------------------|-------------------|-------------------|-------------------|-------------------|
-------------------|-------------------|-------------------|-------------------|-------------------|
-------------------|-------------------|-------------------|-------------------|-------------------|
-------------------|-------------------|-------------------|-------------------|-------------------|
-------------------|-------------------|-------------------|-------------------|-------------------|
-------------------|-------------------|-------------------|-------------------|-------------------|


  W                   W                   W                   W                   W                 
-------------------|-------------------|-------------------|-------------------|-------------------|
-------------------|-------------------|-------------------|-------------------|-------------------|
-------------------|-------------------|-------------------|-------------------|-------------------|
-------------------|-------------------|-------------------|-------------------|-------------------|
-------------------|-------------------|-------------------|-------------------|-------------------|
-------------------|-------------------|-------------------|-------------------|-------------------|


  W                   W                   W                   W                   W                 
-------------------|-------------------|-------------------|-------------------|-------------------|
-------------------|-------------------|-------------------|-------------------|-------------------|
-------------------|-------------------|-------------------|-------------------|-------------------|
-------------------|-------------------|-------------------|-------------------|-------------------|
-------------------|-------------------|-------------------|-------------------|-------------------|
-------------------|-------------------|-------------------|-------------------|-------------------|


  W                   W                   W                   W                   W                 
-------------------|-------------------|-------------------|-------------------|-------------------|
-------------------|-------------------|-------------------|-------------------|-------------------|
-------------------|-------------------|-------------------|-------------------|-------------------|
-------------------|-------------------|-------------------|-------------------|-------------------|
-------------------|-------------------|-------------------|-------------------|-------------------|
-------------------|-------------------|-------------------|-------------------|-------------------|


  W                   H        Q    E   E      E   E   E   E    E   E    Q     
-------------------|-----------------------|----------------------------------|
-------------------|-----------------------|----------------------------------|
-------------------|-------------------16--|---L--16---L--16b---L--16b---L----|
-------------------|-----------------------|----------------------------------|
-------------------|-----------------------|----------------------------------|
-------------------|-----------------------|----------------------------------|


   H          E   E    Q        H         H               W                 
----------------------------|-------------------------|--------------------|
----------------------------|-------------------------|--------------------|
--16b---------L--16b---L----|---L--------16pbr--------|--14----------------|
----------------------------|-------------------------|--------------------|
----------------------------|-------------------------|--------------------|
----------------------------|-------------------------|--------------------|


                          PM                                            
  Q    E   S  S  S  S  S  S  S  S  E      H          E   E   E      E   
--------------------------------------|--------------------------------|
----------14-15-17-15-14--------------|--------------------------------|
----------------------------14--------|--------------------------------|
-------------------------16----16-14--|--11~---------L--12--14--12g14--|
--------------------------------------|--------------------------------|
--------------------------------------|--------------------------------|


   H          E   S   S  S   S   E      W                    Q.      E    E   E    E   E   
------------------------------------|--------------------|----------17b---L--17b---L--17--|
------------------------------------|--------------------|--------------------------------|
------------------------14h-16p-14--|---L----------------|---L----------------------------|
---L~---------L--14h-16-------------|--------------------|--------------------------------|
------------------------------------|--------------------|--------------------------------|
------------------------------------|--------------------|--------------------------------|


                                                                       \1/                      
   W                      Q    E   E    H            H.             E  E      W                 
---Lb~----------------|---L-------19b---L--------|---L~-------------L------|-------------------|
----------------------|--------------------------|-------------------------|-------------------|
----------------------|--------------------------|---------------------0---|--L----------------|
----------------------|--------------------------|-------------------------|-------------------|
----------------------|--------------------------|-------------------------|-------------------|
----------------------|--------------------------|-------------------------|-------------------|


  \1/                                                            
  W                   Q.      S   S  S   S  S   S  S   S   S  S  
-------------------|------------------------------14h-17p-14----|
-------------------|-----------------------14h-17------------17-|
--0----------------|--L-------------14h-16----------------------|
-------------------|---------14h-16-----------------------------|
-------------------|--------------------------------------------|
-------------------|--------------------------------------------|


   S  S   S  S   S   S   E   E    S   S  Q         W                     Q.      E   H         
--14-------------------------------------------|---------------------|------------------------|
-----17p-14----------------------14h-17-17b----|--17~----------------|---L--------------------|
------------16p-14h-16p-14--16b----------------|---------------------|----------15\-----------|
-----------------------------------------------|---------------------|----------15\-----------|
-----------------------------------------------|---------------------|------------------------|
-----------------------------------------------|---------------------|------------------------|


  Q    E   S  S  S  S  S  S  S  S  S  S     S  S  E   H        Q     
----------------------14-17-14----14----|---------------------------|
----------------14-17----------17----17-|--14-----------------------|
----------14-16-------------------------|-----16-14---L-------------|
----------------------------------------|---------------------------|
----------------------------------------|---------------------------|
----------------------------------------|---------------------------|


  Q    E   S   S  S   S  S   S  S   S  E      H          E   E    E    E    
--------------------------------------14--|--------------------------------|
-------------------------------14h-17-----|--17~---------L--17b--17b--17b--|
------------------------14h-16------------|--------------------------------|
-----------------14h-16-------------------|--------------------------------|
----------14h-16--------------------------|--------------------------------|
------------------------------------------|--------------------------------|


   H          E   E   E   E      H          Q     E   E         H         E   E    E   E   
-----------------------------|-------------17-----L---------|-----------------------------|
--17~---------L--15--14------|------------------------------|-----------------------------|
-------------------------16--|--16b------------------16pbr--|---L---------L-----------14--|
-----------------------------|------------------------------|----------------14h--16------|
-----------------------------|------------------------------|-----------------------------|
-----------------------------|------------------------------|-----------------------------|


   H.            E   E       E   E    S  E.    E.    S   E   E       E.    S   E   E    H          
--------------------19b--|---L--19b---L-19b---19b---19b--L--19b--|--19b---19b--L--19b---L~--------|
-------------------------|---------------------------------------|--------------------------------|
---L-------------L-------|---------------------------------------|--------------------------------|
-------------------------|---------------------------------------|--------------------------------|
-------------------------|---------------------------------------|--------------------------------|
-------------------------|---------------------------------------|--------------------------------|

                                              
                                                               \4/      \1/                
   E                                        E   E    E    Q    Q        W                  
--19br--------------------------------------L--19b--19b---L---------|--17----------------||
--------------------------------------------------------------------|--------------------||
---------------------------------------------------------------0----|--------------------||
--------------------------------------------------------------------|--------------------||
--------------------------------------------------------------------|--------------------||
--------------------------------------------------------------------|--------------------||




Duration Legend
---------------
W - whole
H - half
Q - quarter
E - 8th
S - 16th
T - 32nd
X - 64th
. - note dotted
|-n-|  - n-tuplets


Tablature Legend
----------------
L - tied note
x - dead note
g - grace note
(n) - ghost note
> - accentuded note
NH - natural harmonic
AH - artificial harmonic
TH - tapped harmonic
SH - semi harmonic
PH - pitch harmonic
h - hammer on
p - pull off
b - bend
br - bendRelease
pb - preBend
pbr - preBendRelease
brb - bendReleaseBend
\n/ - tremolo bar dip
\n - tremolo bar dive
-/n - tremolo bar Release up
/n\ - tremolo bar inverted dip
/n - tremolo bar return
-\n - tremolo bar Release down
S - shift slide
s - legato slide
/ -  slide into from below or out of upwards
\ -  slide into from above or out of downwards
~ - vibrato
W - wide vibrato
tr - trill
TP - tremolo picking
T - tapping
S - slap
P - pop
< - fade in
^ - brush up
v - brush down
Tap to rate this tab
 
# A B C D E F G H I J K L M N O P Q R S T U V W X Y Z