Guitaretab - guitar tabs
Song name
# A B C D E F G H I J K L M N O P Q R S T U V W X Y Z

Ozzy Osbourne - Shot In The Dark tab

-------------------------------------------------------------------------------
			     "Shot in the Dark" --- Ozzy Osbourne
-------------------------------------------------------------------------------


Tabbed by: [travis]


Tuning: F Bb Db Gb Bb Eb (low to high) [first two strings tuned 1/2 step up]


Key: D Major (D E F# G A B C# D)


*This is such a cool song and there's only one good version of this tab
on here, and it's pretty darn close to it. So I decided to try my own 
version of this. This is really close to the real thing. Please rate
and comment this tab.


Legend:

.    = palm mute
h    = hammer on
p    = pull off
b    = bend
1    = whole step bend
w    = wammy bar
+    = steps to pull wammy bar up
-    = steps to push wammy bar down
[]   = steps of wammy bar
*    = pinch harmonic
~    = vibrato
"    = harmonic
x    = muted string with fret hand lightly
/    = slide up
\    = slide down
h/   = pick once
h/p\ = pick once
__   = hold bend 



Intro:
Guitar 2:
                  1________             1______  2________
eb|-----------------------------------------------------------|
Bb|-12"---7"----5"b-------(5)~~~~~~~--------------------------|
Gb|-----------------------------------7*b-----(7)b-------(7)--|
Db|-----------------------------------------------------------|
Bb|-----------------------------------------------------------|
F |-----------------------------------------------------------|

Guitar 2:
eb|----------------------5"--------------12"------------------|
Bb|-12"----7"-----5"---------------------12"------------------|
Gb|--------------------------------------12"------------------|
Db|--------------------------------------12"------------------|
Bb|--------------------------------------12"-------------12\--|
F |------------------------------------------------------12\--|

=========================================
Guitar 1:
                                                                        [+1]____
eb|-----------------------------------------------------------------------------|
Bb|-----------------------------------------------------------------------------|
Gb|-7------6--------------7-----6------------7-----6--2----4-------------0*w----|
Db|-7------7--------------7-----7------------5-----5--2h5--5p0-5-----0-2--------|
Bb|----0-0-----0-0-----0----0-0----0-0-----0---0-0---------------5-0------------|
F |----------------0-3-----------------0-3--------------------------------------|
       ...     .........    ...    .........   ...             .........

Guitar 1:
                                                             1___  1___ 1___  1____
eb|-----------------------------------------------------------------------------------|
Bb|--------------------------------------------------------5*b--(5)b---5b--(5)b---(5)-|
Gb|-7-----6------------7-----6------------7-----6--2---4------------------------------|
Db|-7-----7------------7-----7------------5-----5--2h5-5------------------------------|
Bb|---0-0----0-0-----0---0-0----0-0-----0---0-0---------------------------------------|
F |--------------0-3----------------0-3------------------x----------------------------|
      ...    .........   ...    .........   ...          .

==========================================
Verse 1:
"Out on the street...the night"
Guitar 1:
eb|------------------------------------------|
Bb|----------2-------------------2-----2-----|
Gb|-------4-------------------4-----4-----2--|
Db|----4-------------------4-----------------|
Bb|-0-------------------0--------------------|
F |------------------------------------------|

Guitar 2: Let this chord ring.
eb|------------------------------------------|
Bb|------------------------------------------|
Gb|-4----------------------------------------|
Db|-4----------------------------------------|
Bb|-0----------------------------------------|
F |------------------------------------------|

=============================================
"I can hear...doesn't seem right"
Guitar 1:
eb|----------0---------------------0--------------2-----------------------|
Bb|----------0---------------2--------2-----------2-----------2-----2-----|
Gb|-------4---------------4-----4--------------4-----------4-----4-----2--|
Db|----5---------------5--------------------4-----------4-----------------|
Bb|-0---------------0--------------------0-----------0--------------------|
F |-----------------------------------------------------------------------|

===========================================
"Something there I can't believe in"
Guitar 1:
eb|----------0--------------------0-----|
Bb|----------0--------------2--------2--|
Gb|-------4--------------4-----4--------|
Db|----5--------------5-----------------|
Bb|-0--------------0--------------------|
F |-------------------------------------|

===========================================
"Voices are calling...I can hear them"
Guitar 2:
eb|-------------------------------------------------------------------|
Bb|---------------------------------------------------5---------------|
Gb|-7-----6---7-x-x-7-----6----7-x-x-7-----6----4-x-x-x-----6---4-x-x-|
Db|-5-----5---5-x-x-5-----5----5-x-x-4-----4----4-x-x-4-----4---4-x-x-|
Bb|---0-0-------------0-0--------------0-0--------------0-0-----------|
F |-------------------------------------------------------------------|
      ...             ...              ...              ...

Guitar 1: Listen for timing.
eb|-------------------0------------------0------------0----------|
Bb|-3----2---3----3------2----3------3-------2---0--------2---0--|
Gb|--------------------------------------------------------------|
Db|--------------------------------------------------------------|
Bb|--------------------------------------------------------------|
F |--------------------------------------------------------------|

===========================================
"Vanishing memories...hurt me now, but a"
Guitar 2:
eb|--------------------------------------------------------------|
Bb|--------------------------------------------------------------|
Gb|-7-----6---7-x-x-7-----6---7-x-x-7-----6------4--6------------|
Db|-5-----5---5-x-x-5-----5---5-x-x-4-----4------4--4------------|
Bb|---0-0-------------0-0----------------------------------------|
F |-----------------------------------0-0-------------------12\--|
      ...             ...             ...                    

Guitar 1: Listen for timing
eb|-----0-------0-------------0--------0-----------2----2--------|
Bb|-3-------2-------3-----3-------2--------2---------------2-----|
Gb|--------------------------------------------------------------|
Db|--------------------------------------------4---------------4-|
Bb|--------------------------------------------------------------|
F |--------------------------------------------------------------|

==============================================
Chorus:
"Shot in the dark, one step a way"
Guitar 2:
eb|-----------------------------------------------------------|
Bb|-----------------------------------------------------------|
Gb|-4-----------------x--9p7-----7p6--------------------------|
Db|-4-----------------x--7-------7------------x---------------|
Bb|-0-------------------------0----------12---x--10-----7--7--|
F |-----------------------------------0--10---x--8------5--5--|
                              .       .             

===============================================
"from you. Shot in the dark"
Guitar 2:
eb|-----------------------------------------------------------|
Bb|-----------------------------------------------------------|
Gb|-------------------4--------------9h7--9--9h/11-----9---7--|
Db|-x-----------------4--------------7----7--7h/-9--x--7---7--|
Bb|-x-8--8---------0--0-----------------------------x---------|
F |---6--6----0h3---------------------------------------------|

================================================
"Always creeping up on you. All right"
Guitar 2:
                                                  1__                 1_____
eb|-----------------------------------------------------------------------------|
Bb|-----------------------------------------------------------------------------|
Gb|-7-----7---------------7-----6---2----4---x--9*b--(9)--6h9p6---6-------------|
Db|-7-----6---------------5-----5---2h5--5---x------------------7---7*b~~~~~(7)-|
Bb|---0-0------0-0-----0----0-0-------------------------------------------------|
F |----------------0-3----------------------------------------------------------|
      ...      .........    ...                       

=================================================
Verse 2:
"Taught by the powers...over me"
Guitar 1:
eb|------------------------------------------|
Bb|----------2-------------------2-----2-----|
Gb|-------4-------------------4-----4-----2--|
Db|----4-------------------4-----------------|
Bb|-0-------------------0--------------------|
F |------------------------------------------|

Guitar 2: Let this chord ring.
eb|------------------------------------------|
Bb|------------------------------------------|
Gb|-4----------------------------------------|
Db|-4----------------------------------------|
Bb|-0----------------------------------------|
F |------------------------------------------|

=============================================
"I can hear their empty...learned how to fight"
Guitar 1:
eb|----------0---------------------0--------------2-----------------------|
Bb|----------0---------------2--------2-----------2-----------2-----2-----|
Gb|-------4---------------4-----4--------------4-----------4-----4-----2--|
Db|----5---------------5--------------------4-----------4-----------------|
Bb|-0---------------0--------------------0-----------0--------------------|
F |-----------------------------------------------------------------------|

===========================================
"I opened up my mind to treason, but"
Guitar 1:
eb|----------0--------------------0-----|
Bb|----------0--------------2--------2--|
Gb|-------4--------------4-----4--------|
Db|----5--------------5-----------------|
Bb|-0--------------0--------------------|
F |-------------------------------------|

===========================================
"Just like the wounded...they'll surrender"
Guitar 2:
eb|-------------------------------------------------------------------|
Bb|---------------------------------------------------5---------------|
Gb|-7-----6---7-x-x-7-----6----7-x-x-7-----6----4-x-x-x-----6---4-x-x-|
Db|-5-----5---5-x-x-5-----5----5-x-x-4-----4----4-x-x-4-----4---4-x-x-|
Bb|---0-0-------------0-0--------------0-0--------------0-0-----------|
F |-------------------------------------------------------------------|
      ...             ...              ...              ...

Guitar 1: Listen for timing.
eb|-------------------0------------------0------------0----------|
Bb|-3----2---3----3------2----3------3-------2---0--------2---0--|
Gb|--------------------------------------------------------------|
Db|--------------------------------------------------------------|
Bb|--------------------------------------------------------------|
F |--------------------------------------------------------------|

===========================================
"Never care for...But a"
Guitar 2:
eb|--------------------------------------------------------------|
Bb|--------------------------------------------------------------|
Gb|-7-----6---7-x-x-7-----6---7-x-x-7-----6------4--6------------|
Db|-5-----5---5-x-x-5-----5---5-x-x-4-----4------4--4------------|
Bb|---0-0-------------0-0----------------------------------------|
F |-----------------------------------0-0-------------------12\--|
      ...             ...             ...                    

Guitar 1: Listen for timing
eb|-----0-------0-------------0--------0-----------2----2--------|
Bb|-3-------2-------3-----3-------2--------2---------------2-----|
Gb|--------------------------------------------------------------|
Db|--------------------------------------------4---------------4-|
Bb|--------------------------------------------------------------|
F |--------------------------------------------------------------|

==============================================
Chorus 2:
"Shot in the dark, one step a way"
Guitar 2:
eb|-----------------------------------------------------------|
Bb|-----------------------------------------------------------|
Gb|-4-----------------x--9p7-----7p6--------------------------|
Db|-4-----------------x--7-------7------------x---------------|
Bb|-0-------------------------0----------12---x--10-----7--7--|
F |-----------------------------------0--10---x--8------5--5--|
                              .       .             

===============================================
"From you. Just a shot in the dark"
Guitar 2:
eb|-----------------------------------------------------------|
Bb|-----------------------------------------------------------|
Gb|-------------------4--------------9h7--9--9h/11-----9---7--|
Db|-x-----------------4--------------7----7--7h/-9--x--7---7--|
Bb|-x-8--8---------0--0-----------------------------x---------|
F |---6--6----0h3---------------------------------------------|
[ Tab from: http://www.guitaretab.com/o/ozzy-osbourne/122319.html ]
===============================================
"Nothing that you can do. Just a shot in the dark."
Guitar 2:
eb|--------------------------------------------------------------------------|
Bb|--------------------------------------------------------------------------|
Gb|--------------------------------------4---9h/11-----9-----7-----9h/11-----|
Db|--------------------------------------4---7h/-9-----7-----7-----7h/9------|
Bb|-12--x--10---7-7---x--8-8--------0-3--0---------0-0---0-0---0-0-------0-0-|
F |-10--x--8----5-5---x--6-6----0-3------------------------------------------|
                                .......            ...   ...   ...       ...

===============================================
"Always creeping up on you. All right."
Guitar 2:
eb|--------------------------------------------|
Bb|--------------------------------------------|
Gb|--------------------------------------------|
Db|--------------------------------------------|
Bb|-12--x--10---7-7--x--8-8---------1--1--1--1-|
F |-10--x--8----5-5--x--6-6--------------------|
                                    ..........

================================================
Interlude: I really can't tell what the other guitar in the backround is doing. Sorry.
Guitar 2:
eb|-----------------------------------------------------------------------|
Bb|-5h/7~~~~---------10p\7------8p\7-------7p\5-------8p\5------7p\5------|
Gb|-5h/7~~~~------7--------7---------7-----7p\5------------5---------5----|
Db|-5h/7~~~~-----------------7---------7---7p\5--------------5---------5--|
Bb|-----------------------------------------------------------------------|
F |-----------------------------------------------------------------------|
                  .        ...       ...                  

Guitar 2:
eb|-----------------------------------------------------------------|
Bb|-5h/7----------10p\7------8p7-------7p\5-----8p\5------7p\5------|
Gb|-5h/7-------7--------7--------7-----7p\5----------5---------5----|
Db|-5h/7------------------7--------7---7p\5------------5---------5--|
Bb|-----------------------------------------------------------------|
F |-----------------------------------------------------------------|
               .

===================================================
Solo:
Guitar 2:
      1___   1_______         1____                 1        1                1_____
eb|------------------7-----------------7---------------------------------------------|
Bb|-10b--(10)b~~~~~~~--10-7-10b---(10)---10p7-10p7----7h8p7-----7--------------------|
Gb|------------------------------------------------9b-------9b----10p9p7---7-9b~~~~~~|
Db|----------------------------------------------------------------------9-----------|
Bb|----------------------------------------------------------------------------------|
F |----------------------------------------------------------------------------------|

Guitar 2:
eb|------------------------------------------------------------------------------------|
Bb|-5-2-----2--------------------------------------------------------------------------|
Gb|-----4-2---2*-4*-2*h4------------------------------------9p6---6-------11p7---7---7-|
Db|-------------------------------------------------5h7--7------7---7-7h9------9---9---|
Bb|-----------------------5*--5*h/7-7*h/10p\7~~~~~~~-----------------------------------|
F |------------------------------------------------------------------------------------|
    .........

Guitar 2:
                1______
eb|---------------------|
Bb|-10p7---7------------|
Gb|------7---7h9b~~~~~~-|
Db|---------------------|
Bb|---------------------|
F |---------------------|

Guitar 2: Tap with your pick.
    T    T    T    T    T    T    T    T    T    T    T    T    T    T    T    T    T
eb|-10p2-10p2-10p2-10p2-10p3-10p3-10p3-10p3-10p3-10p5-10p5-10p5-10p5-10p7-10p7-10p7-10p7-|
Bb|--------------------------------------------------------------------------------------|
Gb|--------------------------------------------------------------------------------------|
Db|--------------------------------------------------------------------------------------|
Bb|--------------------------------------------------------------------------------------|
F |--------------------------------------------------------------------------------------|

Guitar 2: Tap with your pick.
    T    T    T    T    T    T    T    T    T    T    T    T    T    T
eb|-10p5-10p5-10p5-10p5-10p5-10p3-10p3-10p3-10p3-14p7-14p7-14p7-14p7-14p7-|
Bb|-----------------------------------------------------------------------|
Gb|-----------------------------------------------------------------------|
Db|-----------------------------------------------------------------------|
Bb|-----------------------------------------------------------------------|
F |-----------------------------------------------------------------------|

Guitar 2:
    T    T    T    T    T    T    T    T    T    T    T    T     T     T   
eb|-14p8-14p8-14p8-14p8-14p8-14p8-14p9-14p9-14p9-14p9-14p9-14p12-14p12-14p12-|
Bb|--------------------------------------------------------------------------|
Gb|--------------------------------------------------------------------------|
Db|--------------------------------------------------------------------------|
Bb|--------------------------------------------------------------------------|
F |--------------------------------------------------------------------------|

Guitar 2:
    T     T     T     T       1______________
eb|-14p12-14p12-14p12-14p12-12b~~~~~~~~~~~~~~~|
Bb|-------------------------------------------|
Gb|-------------------------------------------|
Db|-------------------------------------------|
Bb|-------------------------------------------|
F |-------------------------------------------|

================================================
"Just like the wounded...they'll surrender"
Guitar 2:
eb|-------------------------------------------------------------------|
Bb|---------------------------------------------------5---------------|
Gb|-7-----6---7-x-x-7-----6----7-x-x-7-----6----4-x-x-x-----6---4-x-x-|
Db|-5-----5---5-x-x-5-----5----5-x-x-4-----4----4-x-x-4-----4---4-x-x-|
Bb|---0-0-------------0-0--------------0-0--------------0-0-----------|
F |-------------------------------------------------------------------|
      ...             ...              ...              ...

Guitar 1: Listen for timing.
eb|-------------------0------------------0------------0----------|
Bb|-3----2---3----3------2----3------3-------2---0--------2---0--|
Gb|--------------------------------------------------------------|
Db|--------------------------------------------------------------|
Bb|--------------------------------------------------------------|
F |--------------------------------------------------------------|

===========================================
"Never care for...But a"
Guitar 2:
eb|--------------------------------------------------------------|
Bb|--------------------------------------------------------------|
Gb|-7-----6---7-x-x-7-----6---7-x-x-7-----6------4--6------------|
Db|-5-----5---5-x-x-5-----5---5-x-x-4-----4------4--4------------|
Bb|---0-0-------------0-0----------------------------------------|
F |-----------------------------------0-0-------------------12\--|
      ...             ...             ...                    

Guitar 1: Listen for timing
eb|-----0-------0-------------0--------0-----------2----2--------|
Bb|-3-------2-------3-----3-------2--------2---------------2-----|
Gb|--------------------------------------------------------------|
Db|--------------------------------------------4---------------4-|
Bb|--------------------------------------------------------------|
F |--------------------------------------------------------------|

==============================================
Chorus 2:
"Shot in the dark, one step a way"
Guitar 2:
eb|-----------------------------------------------------------|
Bb|-----------------------------------------------------------|
Gb|-4-----------------x--9p7-----7p6--------------------------|
Db|-4-----------------x--7-------7------------x---------------|
Bb|-0-------------------------0----------12---x--10-----7--7--|
F |-----------------------------------0--10---x--8------5--5--|
                              .       .             

===============================================
"From you. Just a shot in the dark"
Guitar 2:
eb|-----------------------------------------------------------|
Bb|-----------------------------------------------------------|
Gb|-------------------4--------------9h7--9--9h/11-----9---7--|
Db|-x-----------------4--------------7----7--7h/-9--x--7---7--|
Bb|-x-8--8---------0--0-----------------------------x---------|
F |---6--6----0h3---------------------------------------------|

===============================================
"Nothing that you can do. Just a shot in the dark."
Guitar 2:
eb|--------------------------------------------------------------------------|
Bb|--------------------------------------------------------------------------|
Gb|--------------------------------------4---9h/11-----9-----7-----9h/11-----|
Db|--------------------------------------4---7h/-9-----7-----7-----7h/9------|
Bb|-12--x--10---7-7---x--8-8--------0-3--0---------0-0---0-0---0-0-------0-0-|
F |-10--x--8----5-5---x--6-6----0-3------------------------------------------|
                                .......            ...   ...   ...       ...

===============================================
"Always creeping up on you. All right."
Guitar 2:
eb|--------------------------------------------|
Bb|--------------------------------------------|
Gb|--------------------------------------------|
Db|--------------------------------------------|
Bb|-12--x--10---7-7--x--8-8---------1--1--1--1-|
F |-10--x--8----5-5--x--6-6--------------------|
                                    ..........


================================================
"Just a shot in the dark"
Guitar 2:
                                                                        [+1]____
eb|-----------------------------------------------------------------------------|
Bb|-----------------------------------------------------------------------------|
Gb|-7------6--------------7-----6------------7-----6--2----4-------------0*w----|
Db|-7------7--------------7-----7------------5-----5--2h5--5p0-5-----0-2--------|
Bb|----0-0-----0-0-----0----0-0----0-0-----0---0-0---------------5-0------------|
F |----------------0-3-----------------0-3--------------------------------------|
       ...     .........    ...    .........   ...             .........

=================================================
"Just a shot in the dark"
Guitar 2:
eb|---------------------------------------------------------------------0-----------|
Bb|--------------------------------------------------------------3------------------|
Gb|-7-----6-------------7-----6------------7-----6--2----4--2h/4---4h/6---6p\4--6p5-|
Db|-7-----7-------------7-----7------------5-----5--2h5--5--------------------------|
Bb|---0-0----0-0-----0----0-0----0-0-----0---0-0------------------------------------|
F |--------------0-3-----------------0-3--------------------------------------------|
      ...    .........    ...    .........   ...                

==================================================
"Just a shot in the dark"
Guitar 2: songs starts to fade out here.
eb|--------------------------------------------------------|
Bb|--------------------------------------------------------|
Gb|-7-----6-------------7-----6------------7-----6--2----4-|
Db|-7-----7-------------7-----7------------5-----5--2h5--5-|
Bb|---0-0----0-0-----0----0-0----0-0-----0---0-0-----------|
F |--------------0-3-----------------0-3-------------------|
      ...    .........    ...    .........   ...

==================================================
Cool lick:
Guitar 2:
                               1_____
eb|-7p6p5-4-5-4p3p2-0h1h2h3-4------------|
Bb|---------------------------7b~~~~~(7)-|
Gb|--------------------------------------|
Db|--------------------------------------|
Bb|--------------------------------------|
F |--------------------------------------|

Guitar 1: This guitar is playing an octave below Guitar 2.
                              .5_____
eb|--------------------------------------|
Bb|--------------------------------------|
Gb|-4p3p2-1-2-1p0p----------1------------|
Db|---------------4-2h3h4h5---4b~~~~~(4)-|
Bb|--------------------------------------|
F |--------------------------------------|

===================================================
Guitar 2:
                                                                        [+1]____
eb|-----------------------------------------------------------------------------|
Bb|-----------------------------------------------------------------------------|
Gb|-7------6--------------7-----6------------7-----6--2----4-------------0*w----|
Db|-7------7--------------7-----7------------5-----5--2h5--5p0-5-----0-2--------|
Bb|----0-0-----0-0-----0----0-0----0-0-----0---0-0---------------5-0------------|
F |----------------0-3-----------------0-3--------------------------------------|
       ...     .........    ...    .........   ...             .........

====================================================
Guitar 2:
                                                               1___ 1.5____
eb|----------------------------------------------------------------------------|
Bb|----------------------------------------------------------------------------|
Gb|-7-----6------------7-----6------------7-----6--2----4----------------------|
Db|-7-----7------------7-----7------------5-----5--2h5--5--/12*b--(12)b---(12)-|
Bb|---0-0----0-0-----0---0-0----0-0-----0---0-0--------------------------------|
F |--------------0-3----------------0-3----------------------------------------|
      ...    .........   ...    .........   ...                


Please comment and rate.
[travis]



==========================================
==========================================
==========================================
Related for Shot In The Dark tab
Shot In The Dark chords by Ozzy Osbourne