Guitaretab - guitar tabs
Song name
# A B C D E F G H I J K L M N O P Q R S T U V W X Y Z

Ozzy Osbourne - Walk On Water tab

"Walk on Water" by Ozzy Osbourne

From the "Beavis and Butthead do America" soundtrack

[PART 1]

Eb|0------------|
Bb|--0----------|
Gb|----x--------|
Db|------2------|
Ab|--------2----|
Eb|-----------0-|

[PART 2]

Eb|------0----------0---------------0----------0----|
Bb|---0-----0----0-----0---------1-----1----1-----1-|
Gb|-------------------------------------------------|
Db|-------------------------------------------------|
Ab|---------------------------0---------------------|
Eb|0------------------------------------------------|

[PART 3]

Eb|----------------------------------------------------------------------|
Bb|----------------------------------------------------------------------|
Gb|----0------0--------0-----0-----------0-----0-------------0-----0-----|
Db|-----------------4----------4p0----------------4-------4----------4p0-|
Ab|0------2------3--------5----------0------2----------3--------5--------|
Eb|----------------------------------------------------------------------|


Eb|---0---------0---------0---------0---|
Bb|-----0---------0---------0---------0-|
Gb|-------------------------------------|
Db|-------------------------------------|
Ab|0---------2---------3---------5------|
Eb|-------------------------------------|

[PART 4]

Eb|--------------------------------------------------------------|
Bb|--------------------------------------------------------------|
Gb|--------------------------------------------------------5-----|
Db|4-4-4-4-4-4-4-4-4-4-4-4-4-4-4-4-4-4-4-4-4-4-4-4-4-4-4-4-5 x 4-|
Ab|2-2-2-2-2-2-2-2-2-2-2-2-2-2-2-2-2-2-2-2-2-2-2-2-2-2-2-2-3-----|
Eb|--------------------------------------------------------------|
pm---------------------------------------------------------------|
[ Tab from: http://www.guitaretab.com/o/ozzy-osbourne/133515.html ]
Eb|--------------------------------------------------------------|
Bb|--------------------------------------------------------------|
Gb|--------------------------------------------------------6-----|
Db|5-5-5-5-5-5-5-5-5-5-5-5-5-5-5-5-5-5-5-5-5-5-5-5-5-5-5-5-6 x 4-|
Ab|3-3-3-3-3-3-3-3-3-3-3-3-3-3-3-3-3-3-3-3-3-3-3-3-3-3-3-3-4-----|
Eb|--------------------------------------------------------------|
pm---------------------------------------------------------------|


Okay, now as for the song progression, it goes like this:

[PART 1] x 4

[PART 2] x 4

I met a magic man who had a daughter
She learned her lessons well but still I taught her
She followed willingly as lambs to slaughter
We shared forbidden fruits and things I brought her

[PART 3]

You may say I'm a miracle mannequin
Here I come with my mystical plan again
Although you think I can I'm just a man
And I don't walk on

[PART 1] x 4

water oh no
I don't walk on water oh no

[PART 2] x 4

I followed willingly her sweet temptation
She had me hypnotized and still I'm waiting
My dromedary dreams as wet as oceans
With sand dunes bearing seeds she set in motion

[PART 3]

You may say I'm a cynical charlatan
There I go with my whimsical ways again
Although you think I can I'm just a man
And I don't walk on

[PART 1] x 4

water oh no
I don't walk on water oh no
I don't walk on water oh no
I don't walk on water oh no

[PART 4]

Kaliedoscopal eyes as you look in the mirror
And the long is getting shorter as the far is now nearer

[PART 2] x 4

Are you just a mirage standing in front of me
Am I blind can my eyes really see

[PART 3]

You may say I'm a miracle mannequin
Here I come with my mystical plan again
Although you think I can I'm just a man
And I don't walk on

[PART 1] x 13

water oh no
I don't walk on water oh no
I don't walk on water oh no
I don't walk on water oh no

My dromedary dreams as wet a oceans
With sand dunes bearing seeds she set in motion

My dromedary dreams

My dromedary dreams

My dromedary dreams
Related for Walk On Water tab
×
Best way to learn
"Walk On Water"