Song name
# A B C D E F G H I J K L M N O P Q R S T U V W X Y Z

Ozzy Osbourne - Rock N Roll Rebel tab

Help us improve GuitareTab! Take a short survey!


|----------------|----------------|----------------|----------------||
|----------------|----------------|----------------|----------------||
|--2------4----6-|---2------4-----|-6--------------|-----9-11-11----||
|--2------2----4-|---2------2-----|-4-----2-4--4---|-----9-11-11----||
|----------------|----------------|-------2-4--4---|-----7--9--9----||
|----2-2----2-2--|-2---2--2---2-2-|---0-0-0-2--2---|-0-0------------||
     PM--| PM--|  PM   PM-|  PM-|     PM-|           PM-|

|----------------|----------------|----------------|----------------||
|----------------|---3------------|----------------|----------------||
|--2------4----6-|---2------6-----|-4-xx--2--------|-----9-11-11----||
|--2------2----4-|---2------4-----|-2-xx--2-4--4---|-----9-11-11----||
|----------------|----------------|---xx--0-4--4---|-----7--9--9----||
|----2-2----2-2--|-2---2--2---2-2-|---------2--2---|-0-0------------||
     PM-|  PM-|   PM   PM-|  PM-|                    PM-|
Related for Rock N Roll Rebel tab