Song name
# A B C D E F G H I J K L M N O P Q R S T U V W X Y Z

Ozzy Osbourne - Running Out Of Time tab

----------------------------------------------------------------------------
	        Running Out Of Time - Ozzy Osbourne
----------------------------------------------------------------------------

Tabbed By: Brack

Tuning: Eb




  __G__D(add 9)__A____Dsus4   C__   D__  Dsus4___Em__
eb --3-- --0--  --0--  --3-- --0-- --2--  --3-- --0--
Bb --0-- --3--  --2--  --3-- --1-- --3--  --3-- --0--
Gb --0-- --2--  --2--  --2-- --0-- --2--  --2-- --0--
Db --0-- --0--  --2--  --0-- --2-- --0--  --0-- --2--
Ab --2-- -----  --0--  ----- --3-- -----  ----- --2--
Eb --3-- -----  -----  ----- ----- -----  ----- --0--

Verse:
G                         D(add 9)
BEEN AROUND THIS WORLD SO MANY TIMES
A                 G
IF YOU COULD ONLY SEE MY MIND
G                 D(add 9)       A
I WATCH MY SECRET HEAVEN TURN TO HELL
G                         D(add 9)
FAITH ALONE HAS GUIDED ME
A                 G
THE GHOST OF MY OWN DESTINY
G              D(add 9)      A
I HAVEN'T EVEN GOT A SOUL TO SELL
Bridge:
C                G
ALL THE THINGS I PUT ME THROUGH
C                G
I WOULDN'T WISH MY HELL ON YOU

C                        G        D      A
YOU'LL NEVER KNOW WHAT'S GOING ON INSIDE
Chorus:
             Em     G      D     A
JUST ANOTHER LONELY BROKEN HERO
               Em     G     D-Dsus4-D (very quick tap on the 3rd fret) A
PICKING UP THE PIECES OF MY MIND
               Em        G        D      A
RUNNING OUT OF FAITH AND HOPE AND REASON
                   Em  A               Em  A
I'M RUNNING OUT OF TIME, RUNNING OUT OF TIME
Each verse is the same but after the first verse Zakk plays this:

~= vibrato
^= bend
eb|--------------------------------------------------|
Bb|--------------------------------------------------|
Gb|--------------------------------------------------|
Db|-----4-5~--7~-5-4---------4-5~-7^(8)-7~-7-9-7-5-4~|
Ab|-/7~--------------7~-5-7~-------------------------|
Eb|--------------------------------------------------|

That's it, but for the outro just repeat the bridge over and over.

Tap to rate this tab
# A B C D E F G H I J K L M N O P Q R S T U V W X Y Z