Guitaretab - guitar tabs
Song name
# A B C D E F G H I J K L M N O P Q R S T U V W X Y Z

Ozzy Osbourne - In My Life tab

e:----2------------|
B:----2----------6-|
G:--3-----3-4-6--6-|
D:--4------------6-| x 2
A:--------1-2-4----|
E:-----------------|


e:--------------------------------------------------------------------------------|
B:-----------------3----------------4-4-4-4-4-4--3-3-3-3-3------------------------|
G:-------3-------3-------------8----4-4-4-4-4-4--4-4-4-4-4--3-3-3-3-3-3-----3-----|
D:-----4-------3----------8----8----4-4-4-4-4-4--4-4-4-4-4--4-4-4-4-4-4---4---4---| x 2
A:---4-------1----------6---6--6----2-2-2-2-2-2--2-2-2-2-2--4-4-4-4-4-4-4-------4-|
E:-2--------------------------------------------------------2-2-2-2-2-2-----------|



e:------------------------------------------------------------------------|
B:-7-7-7-7-7-7-7-7-7-7-7--4-4-4-4-4-4-4-4--3-3-3-3-3-3-3-3--2-2-2-2-2-2-2-|
G:-8-8-8-8-8-8-8-8-8-8-8--4-4-4-4-4-4-4-4--4-4-4-4-4-4-4-4--3-3-3-3-3-3-3-|
D:-8-8-8-8-8-8-8-8-8-8-8--6-6-6-6-6-6-6-6--4-4-4-4-4-4-4-4--4-4-4-4-4-4-4-| x 2
A:-6-6-6-6-6-6-6-6-6-6-6--6-6-6-6-6-6-6-6--2-2-2-2-2-2-2-2--4-4-4-4-4-4-4-|
E:------------------------4-4-4-4-4-4-4-4-------------------2-2-2-2-2-2-2-|

e:----2------------|
B:----2----------6-|
G:--3-----3-4-6--6-|
D:--4------------6-|
A:--------1-2-4----|
E:-----------------|


e:--------------------------------------------------------------------------------|
B:-----------------3----------------4-4-4-4-4-4--3-3-3-3-3------------------------|
G:-------3-------3-------------8----4-4-4-4-4-4--4-4-4-4-4--3-3-3-3-3-3-----3-----|
D:-----4-------3----------8----8----4-4-4-4-4-4--4-4-4-4-4--4-4-4-4-4-4---4---4---| x 2
A:---4-------1----------6---6--6----2-2-2-2-2-2--2-2-2-2-2--4-4-4-4-4-4-4-------4-|
E:-2--------------------------------------------------------2-2-2-2-2-2-----------|


[ Tab from: http://www.guitaretab.com/o/ozzy-osbourne/161307.html ]
e:----------------------------------------------------------------------------|
B:-7-------------------(7)--4-------------(4)--3-3-3-3-3-3-3-3--2-2-2-2-2-2-2-|
G:-8-------------------(8)--4-------------(4)--4-4-4-4-4-4-4-4--3-3-3-3-3-3-3-|
D:-8-------------------(8)--6-------------(6)--4-4-4-4-4-4-4-4--4-4-4-4-4-4-4-| x 2
A:-6-------------------(6)--6-------------(6)--2-2-2-2-2-2-2-2--4-4-4-4-4-4-4-|
E:--------------------------4-------------(4)-------------------2-2-2-2-2-2-2-|

  
e:--------------------------------------------------------------------------------------|
B:----------------3-3-3-3-3-3-3-------------4-4-4-4-4--3-3-3-3-3------------------------|
G:-3-3-3-3-3-3-3--3-3-3-3-3-3-3--8-8-8-8-8--4-4-4-4-4--4-4-4-4-4--3-3-3-3-3-3-3-3-3-3-3-|
D:-4-4-4-4-4-4-4--3-3-3-3-3-3-3--8-8-8-8-8--4-4-4-4-4--4-4-4-4-4--4-4-4-4-4-4-4-4-4-4-4-|x2
A:-4-4-4-4-4-4-4--1-1-1-1-1-1-1--6-6-6-6-6--2-2-2-2-2--2-2-2-2-2--4-4-4-4-4-4-4-4-4-4-4-|
E:-2-2-2-2-2-2-2--------------------------------------------------2-2-2-2-2-2-2-2-2-2-2-|



e:----------------------------------------------------------------------------|
B:-7-------------------(7)--4-------------(4)--3-3-3-3-3-3-3-3--2-2-2-2-2-2-2-|
G:-8-------------------(8)--4-------------(4)--4-4-4-4-4-4-4-4--3-3-3-3-3-3-3-|
D:-8-------------------(8)--6-------------(6)--4-4-4-4-4-4-4-4--4-4-4-4-4-4-4-| x 2
A:-6-------------------(6)--6-------------(6)--2-2-2-2-2-2-2-2--4-4-4-4-4-4-4-|
E:--------------------------4-------------(4)-------------------2-2-2-2-2-2-2-|


e:----2------------|
B:----2----------6-|
G:--3-----3-4-6--6-|
D:--4------------6-|
A:--------1-2-4----|
E:-----------------|



e:----2------------|
B:----2----------6-|
G:--3-----3-4-6--6-|
D:--4------------6-| x 2
A:--------1-2-4----|
E:-----------------|
Related for In My Life tab
In My Life chords by Ozzy Osbourne