Song name
# A B C D E F G H I J K L M N O P Q R S T U V W X Y Z

Ozzy Osbourne - Stayin Alive tab

Song: Stayin Alive
Artist: Ozzy osbourne
Album: Ozzy w/ Dweezil Zappa


All aboard the disco train ha ha ha

Chorus:

e|-----------------------------------------------------|
b|-----------------------------------------------------|
g|--------2--------------------------------------2-----|
d|---2h4-----2h4--------2--------2---------2h4---------|
a|----------------2h4------2h4------2h4----------------|
e|-----------------------------------------------------|

after chorus

e|--------------------------------|
b|--------------------------------|
g|--4-4-4-4-4-4-4-4-4-4-----------|
d|--4-4-4-4-4-4-4-4-4-4-----------|
a|--2-2-2-2-2-2-2-2-2-2-----------|
e|--------------------------------|

end!!
Tap to rate this tab
# A B C D E F G H I J K L M N O P Q R S T U V W X Y Z