Song name
# A B C D E F G H I J K L M N O P Q R S T U V W X Y Z

Ozzy Osbourne - Civilize The Universe tab

                   Song:Civilize The Universe  
                   Artist:Ozzy Osbourne
                   Album:Black Rain
                   Tabbed by:Anna
                    *guitar tab*
    *[I'm the one who made the Almighty Dollar tab by ozzy]*
 
      !This time you will tune your guitar down to DAFCGD!


d-------x--x--x--x-----------------------|
A-------x--x--x--x---x--x--x--x----------|
F--------------------x--x--x--x----------|
C----------------------------------------|
G----------------------------------------|           
D------scrape your pick down the strings-|


********************                      
d------------------|
A--5h6p5--5h6p5-3--|
F------------------|
C--1st guitar------|
G------------------|
D------------------|
********************


      x3                             x3
d--------------|-12-0-12-0-12-13-|-----------|---------------|
A--------------|-----------------|-----------|---------------|
F--------------|-----------------|-----------|---------------|
C------2p0-----|-----------------|----2p0----|---------------|
G----------2p0-|-----------------|--------2p0|0-----0-----0--|
D--0-0---------|-----------------|0-0--------|--3-0---3-0---3|
                THIS IS ALL I 
                COULD THINK OF
                    OK?!
             [it sucks, but it gives you an idea.]

Tap to rate this tab
# A B C D E F G H I J K L M N O P Q R S T U V W X Y Z