Song name
# A B C D E F G H I J K L M N O P Q R S T U V W X Y Z

Ozzy Osbourne - Thank God For The Bomb tab

Surprised theres no tab for this already. awesome song
Intro(with some delay effect)
d#|-------------------|
A#|-------------------|
F#|o-----------------o|
C#|o----pm----pm-----o|
G#|-7-7---5-7---5-----|
D#|-5-5-0-3-5-0-3-----|

Main Riff(you can work out where pm goes!)
d#|------------------------------|---------------|1-----||2---|
A#|------------------------------|----------------pinch-|-----|
F#|o-----------------------------|----------------harm.o|-----|
C#|o-----------------------------|---------------------o|-----|
G#|-7-7---5-7---5----6---5---3---|-7-7---5-7---5--3-5~--|-2-3-|
D#|-5-5-0-3-5-0-3--3---3---3---3-|-5-5-0-3-5-0-3--------|-0-1-|

Verse
d#|-----------------------------|-----------------------------|
A#|-----------------------------|-----------------------------|
F#|-----------------------------|-----------------------------|
C#|---pm|---pm|---pm|---pm|-----|---pm|---pm|---pm|---pm|-----|
G#|-4-----4-----4-----4-----7-7-|-2-----2-----2-----2-----7-7-|
D#|-2-2-2-2-2-2-2-2-2-2-2-2-5-5-|-0-0-0-0-0-0-0-0-0-0-0-0-5-5-|

Pre-Chorus
d#|------------------------------|
A#|------------------------------|
F#|------------------------------|
C#|-7--7--7--7--7--7--4--4--6----|
G#|-5--5--5--5--5--5--2--2--4----|
D#|------------------------------|

Chorus
d#|----------------------|-----------------------|-------------------------|
A#|----------------------|-----------------------|-------------------------|
F#|----------pm--|-4-----|-----------------------|----------4-6--4tr6------|
C#|-6--6--4--------------|-6--6--4---6---4-------|-6--6--4-------------6-4-|
G#|-4--4--2--4-6-7---7-6-|-4--4--2-----4---4-7-6-|-4--4--2-----------------|
D#|----------------------|-----------------------|-------------------------|

d#|-----------------------|
A#|-----------------------|
F#|-----------------------|
C#|-6--7--8--9--10-11-12--|
G#|-4--5--6--7--8--9--10--|
D#|-----------------------|back to main riff etc. again

interlude
d#|---------------------------------|--------------------------------------|
A#|---------------------------------|--------------------------------------|
F#|---pm|---pm|---pm--pm|---pm|---pm|-then-similar rhythm-for--------------|
C#|-5-----5-----5---5-----5-----5---|-4-|-3-|-2-|-2-|----------------------|
G#|-3-3-3-3-3-3-3-3-3-3-3-3-3-3-3-3-|-2-|-1-|-0-|-0-|-5--------------------|
D#|---------------------------------|---|---|---|---|-3--------------------|

solo rhythm
d#|-----------|-----------|-------------------|
A#|-----------|-----------|-------------------|
F#|o-2--2--4-o|o-7--7--9-o|-------------------|
C#|o-2--2--4-o|o-7--7--9-o|-7--8--9--10-11-12-|
G#|--0--0-----|--5--5--7--|-5--6--7--8--9--10-|
D#|-----------|-----------|-------------------|

basically repeats for rest of song. Can't work out solo or some of the main riff fills 
afraid-probably try it when I can play it! later on.
Tap to rate this tab
# A B C D E F G H I J K L M N O P Q R S T U V W X Y Z