Song name
# A B C D E F G H I J K L M N O P Q R S T U V W X Y Z

Ozzy Osbourne - Devils Daughter tab

Artist: Ozzy Osbourne
Album: No Rest for the Wicked
Title: Devils Daughter

From: www.BlackLabelSociety.net

Tabbed By: KP

Tune down 1/2 step: Eb Ab Db Gb Bb Eb
                

  RIFF 1
                                                                     ~~
 ||------------------|-----------------|-----------------|--------------||
 ||------------------|-----------------|-----------------|--------------||
 ||------------------|-----------------|-----------------|--------------||
 ||--7-----5-----7---|---5-------------|-7-----5-----7---|--------------||
 ||----0-0---0-0---0-|-0---0-0-3-6-5-3-|---0-0---0-0---0-|-0-5^b---5-3--||
 ||------------------|-----------------|-----------------|--------------||


  RIFF2                                    
 |--|------------------------|----------------------|-----------------------|
 |-*|--7-----7----5----5--2--|---------2--0--2------|--7-----7--5-----5--0--|
 |--|--7-----7----5----5--2--|---------2--0--2------|--7-----7--5-----5--0--|
 |--|--7-----7----5----5--2--|---------2--0--2------|--7-----7--5-----5--0--|
 |-*|----0-0-------0-0-------|-0-0-0-0--------------|----0-0------0-0-------|
 |--|------------------------|------------------3ph-|-----------------------|

|----------------------------------|--|------------------------------|----|
|----------------------------------|*-|------------------------------|2nd-|
|--------------------------5-7-5-7-|1X|---7-5------------------------|end-|
|------------------5-7-5-7---------|--|-------7-6-5-3\5--------------|ing-|
|----------5-7-5-7-----------------|*-|------------------------------|----|
|--5-7-5-7-------------------------|--|------------------------------|----|



  RIFF3
 ||--3---2--------|-------------------|--3--2-------|------------------|--3--2----------|
 ||--3---3---2----|--------7^8--7^5---|--3--3-------|------------------|--3--3---2------|
 ||--2---2---2----|----5---7^8--7^5---|--2--2-------|------------------|--2--3---2------|
 ||--0---0---2----|--7---7------------|--0--0---3---|(3)-3-3-3-3-3-3-3-|--0--0---2------|
 ||----------0----|-------------------|---------3---|(3)-3-3-3-3-3-3-3-|---------0------|
 ||---------------|-------------------|---------1---|(1)-1-1-1-1-1-1-1-|----------------|



 ||--------------------|-----------------|-----------------|-----------------|------------||
 ||--------7^8--7^5----|-----------------|-----------------|-----------------|------------||
 ||---5----7^8--7^5----|-----------------|-----------------|-----------------|------------||
 ||-7---7----------7---|-5-5-5-5-5-5-5-5-|-0-0-0-0-0-0-0-0-|-3-3-3-3-3-3-3-3-|-2----------||
 ||--------------------|-5-5-5-5-5-5-5-5-|-0-0-0-0-0-0-0-0-|-3-3-3-3-3-3-3-3-|-2----------||
 ||--------------------|-3-3-3-3-3-3-3-3-|-2-2-2-2-2-2-2-2-|-1-1-1-1-1-1-1-1-|-0----------||


|--|--------------------------------------------------|--|---------|---|
|-*|----------------------------------------------2---|*-|--4^5^4--|*--|
|--|----------------------------------------------2---|1-|--4^5^4--|2--|
|--|----------------------------------------------2---|--|--4^5^4--|---|
|-*|-4-0-4----------4---------4---------4---------0---|*-|---------|*--|
|--|-2-0-2--0-0-0-0-2-0-0-0-0-2-0-0-0-0-2--0-0-0-0----|--|---------|---|

  SOLO
                     ~~                ~~~~~~~                   ~~~
 ||-------------|---------------------|---------|-------------------|-------------|
 ||--------17^b-|----17---------------|---------|--12---------------|--------17^b-|
 ||-----15------|-------13-15^13-15^b-|(15)-----|--11^b-rb^11^9-11--|-----15------|
 ||--16---------|---------------------|---------|-------------------|--16---------|
 ||-------------|---------------------|---------|-------------------|-------------|
 ||-------------|---------------------|---------|-------------------|-------------|

      ~~               ~~~~~~~~~               ~~~~
 ||-------------------|-----------|------------------|--------------------------|
 ||--17---------------|-----------|------------------|-14--------14--------14---|
 ||-----13-15^13-15^b-|(15)-------|-11^b---11-11-----|-14--------14--------14---|
 ||-------------------|-----------|------------------|---16161616--16161616-----|
 ||-------------------|-----------|------------------|--------------------------|
 ||-------------------|-----------|------------------|--------------------------|


 ||------------------------------------------|--------------------------|
 ||-13121013-12101312-10131210-12^b^12^10-12-|-14--------14--------14---|
 ||------------------------------------------|-14--------14--------14---|
 ||------------------------------------------|---16161616--16161616-----|
 ||------------------------------------------|--------------------------|
 ||------------------------------------------|--------------------------|


 ||-12-11-10-9-8-12-11-10-|-------------------------|-14-----------14------------|
 ||-----------------------|-14--------14--------14--|---17^14-17^b---17^14-17^b--|
 ||-----------------------|-14--------14--------14--|----------------------------|
 ||-----------------------|---16161616--16161616----|----------------------------|
 ||-----------------------|-------------------------|----------------------------|
 ||-----------------------|-------------------------|----------------------------|



 ||-------------------------|-14^b--------|-----------------------------------|
 ||-14--------14--------14--|------14-14--|-8^0-7^0-5^0-7^0-8^0-7^0-5^0-7^0---|
 ||-14--------14--------14--|-------------|-----------------------------------|
 ||---16161616--16161616----|-------------|-----------------------------------|
 ||-------------------------|-------------|-----------------------------------|
 ||-------------------------|-------------|-----------------------------------|


 ||-----------------------------------|---------------------------------|--------------|
 ||-10^0-8^0-7^0-8^0-10^0-8^0-7^0-8^0-|-5^0-3^0-1^0-3^0-5^0-3^0-1^0-3^0-|-2----5---7---|
 ||-----------------------------------|---------------------------------|-4^b--7^b-9^b-|
 ||-----------------------------------|---------------------------------|--------------|
 ||-----------------------------------|---------------------------------|--------------|
 ||-----------------------------------|---------------------------------|--------------|


 ||---------------------------------|-----------------------------------|
 ||-8^0-7^0-5^0-7^0-8^0-7^0-5^0-7^0-|-10^0-8^0-7^0-8^0-10^0-8^0-7^0-8^0-|
 ||---------------------------------|-----------------------------------|
 ||---------------------------------|-----------------------------------|
 ||---------------------------------|-----------------------------------|
 ||---------------------------------|-----------------------------------|



 ||---------------------------------------|---------------|--------------------------------|
 ||-12^0-10^0-8^0-10^0-12^0-10^0-8^0-10^0-|-2----5---7----|-----17-20^17----17-20^17----17-|
 ||---------------------------------------|-4^b--7^b-9^b--|-19^b--------19^b--------19^b---|
 ||---------------------------------------|---------------|--------------------------------|
 ||---------------------------------------|---------------|--------------------------------|
 ||---------------------------------------|---------------|--------------------------------|


 ||-----------------------------------|----------------------------------|------------------|
 ||-20^17----17-20^17----17-20^17-----|-17-20^17----17-20^17----17-20^17-|------------------|
 ||------19^b--------19^b--------19^b-|---------19^b--------19^b---------|-19^b^19-17-19----|
 ||-----------------------------------|----------------------------------|------------------|
 ||-----------------------------------|----------------------------------|------------------|
 ||-----------------------------------|----------------------------------|------------------|



 ||-20^b--rb^20^17--20^17---17------------|--|
 ||----------------------17----20^17------|--|
 ||---------------------------------19^17-|--|
 ||---------------------------------------|8X|
 ||---------------------------------------|--|
 ||---------------------------------------|--|
          
 ||-------------------------------------||
 ||-------------------------------------||
 ||--19^b--17------------19-~~~~~~~~~~--||
 ||-----------19-17---------------------||
 ||------------------19-----------------||
 ||-------------------------------------||

Tap to rate this tab
# A B C D E F G H I J K L M N O P Q R S T U V W X Y Z