Guitaretab - guitar tabs
Song name
# A B C D E F G H I J K L M N O P Q R S T U V W X Y Z

Ozzy Osbourne - Dreamer Acoustic tab

Ozzy Osbourne - Dreamer (Acoustic)

Piano transcribed to Acoustic Guitar..

If you have a second, slightly Distorted guitar you might be able to play this a little
realistically.

. = Palm Mute
h = Hammer On
p = Pull Off
o = let ring
^ = Bend
* = Pinch Harmonic
~ = Vibrato
/\= Slide

   --INTRO--
|---------------------------------------------------|
|-----------9--9--7--7--6--6---------6--6o----------|
|--------------6-----6-----6---8--8-----6o----------|
|---------------------------------6-----------------| x2
|------4--------------------------------------------|
|---4-----------------------------------------------|

   --VERSE--

|-----------------------------------|
|--6---6---6---6---6---6---6---6----|
|--6---6---6---6---6---6---6---6----|
|----8---8---8---8---8---8---8---8--|
|-----------------------------------| x2
|-----------------------------------|

|-----------------------------------|
|--5---5---5---5---5---5---5---5----|
|--5---5---5---5---5---5---5---5----|
|----7---7---7---7---7---7---7---7--|
|-----------------------------------| x1
|-----------------------------------|

Repeat this, then play this part one more time:

|-----------------------------------|
|--6---6---6---6---6---6---6---6----|
|--6---6---6---6---6---6---6---6----|
|----8---8---8---8---8---8---8---8--|
|-----------------------------------| x1
|-----------------------------------|

   --Chorus--

|------------------|
|--1---1---1---1---|
|--1---1---1---1---|
|----3---3---3---3-|
|------------------| x1
|------------------|

|------------------|
|--2---2---2---2---|
|--2---2---2---2---|
|----4---4---4---4-|
|------------------|x1
|------------------|

|------------------|
|--1---1---1---1---|
|--1---1---1---1---|
|----3---3---3---3-|
|------------------| x1
|------------------|

|------------------|
|--3---3---3---3---|
|--3---3---3---3---|
|----5---5---5---5-|
|------------------|x1
|------------------|

|------------------|
|--1---1---1---1---|
|--1---1---1---1---|
|----3---3---3---3-|
|------------------| x1
|------------------|

|------------------|
|--2---2---2---2---|
|--2---2---2---2---|
|----4---4---4---4-|
|------------------|x1
|------------------|

|------------------|
|--1---1---1---1---|
|--1---1---1---1---|
|----3---3---3---3-|
|------------------| x1
|------------------|

|-----|
|--4--|
|--5--| Let ring until Verse 2 starts
|--6--|
|-----| x1
|-----|

   --VERSE--

|-----------------------------------|
|--6---6---6---6---6---6---6---6----|
|--6---6---6---6---6---6---6---6----|
|----8---8---8---8---8---8---8---8--|
|-----------------------------------| x2
|-----------------------------------|

|-----------------------------------|
|--5---5---5---5---5---5---5---5----|
|--5---5---5---5---5---5---5---5----|
|----7---7---7---7---7---7---7---7--|
|-----------------------------------| x1
|-----------------------------------|

|-----------------------------------|
|--6---6---6---6---6---6---6---6----|
|--6---6---6---6---6---6---6---6----|
|----8---8---8---8---8---8---8---8--|
|-----------------------------------| x1
|-----------------------------------|


   --Chorus--

|------------------|
|--1---1---1---1---|
|--1---1---1---1---|
|----3---3---3---3-|
|------------------| x1
|------------------|

|------------------|
|--2---2---2---2---|
|--2---2---2---2---|
|----4---4---4---4-|
|------------------|x1
|------------------|

|------------------|
|--1---1---1---1---|
|--1---1---1---1---|
|----3---3---3---3-|
|------------------| x1
|------------------|

|------------------|
|--3---3---3---3---|
|--3---3---3---3---|
|----5---5---5---5-|
|------------------|x1
|------------------|

|------------------|
|--1---1---1---1---|
|--1---1---1---1---|
|----3---3---3---3-|
|------------------| x1
|------------------|
[ Tab from: http://www.guitaretab.com/o/ozzy-osbourne/188071.html ]
|------------------|
|--2---2---2---2---|
|--2---2---2---2---|
|----4---4---4---4-|
|------------------|x1
|------------------|

|------------------|
|--1---1---1---1---|
|--1---1---1---1---|
|----3---3---3---3-|
|------------------| x1
|------------------|

|------------------|
|--3---3---3---3---|
|--3---3---3---3---|
|----5---5---5---5-|
|------------------|x1
|------------------|


   --BRIDGE--
(Your higher power may be God part)

|------------------|
|--4---4---4---4---|
|--4---4---4---4---|
|----6---6---6---6-|
|------------------|x1
|------------------|

|------------------|
|--5---4---4---4---|
|--5---4---4---4---|
|----6---6---6---6-|
|------------------|x1
|------------------|

Repeat this four times.

   --SOLO--
(You can use the Chorus for backing or replacement. Or just skip it if your doing an
version)

|-------|
|-------|
|--/--\-|
|--4--6-|
|-------|
|-------|

|-------------------------------------------/-\--6~~-|
|---------4--4^-4---4-----------------4--6--7-9------|
|------6----------6-----------------6----------------|
|---6------------------8~~--6-6---6------------------|
|----------------------------------------------------|
|----------------------------------------------------|

|------------------------/-\--14-16-18-----------------|
|--------------------14-16-18----------16^--16^16^16---|
|---8^-----8--6---13-----------------------------------|
|------------------------------------------------------|
|------------------------------------------------------|
|------------------------------------------------------|

|----------------------------------------------------|
|------------------------------------------13-15-16--|
|--15^13-15^15^13------------------13-15-17----------|
|--------------------------13-15-16------------------|
|------------------13-15-16--------------------------|
|----------------------------------------------------|

|------|
|-16^~-|
|------|
|------|
|------|
|------|

 --INTERLUDE--
|---------------------------------------------------|
|-----------9--9--7--7--6--6---------6--6o----------|
|--------------6-----6-----6---8--8-----6o----------|
|---------------------------------6-----------------| x2
|------4--------------------------------------------|
|---4-----------------------------------------------|

--VERSE--

|-----------------------------------|
|--6---6---6---6---6---6---6---6----|
|--6---6---6---6---6---6---6---6----|
|----8---8---8---8---8---8---8---8--|
|-----------------------------------| x2
|-----------------------------------|

|-----------------------------------|
|--5---5---5---5---5---5---5---5----|
|--5---5---5---5---5---5---5---5----|
|----7---7---7---7---7---7---7---7--|
|-----------------------------------| x1
|-----------------------------------|

|-----------------------------------|
|--6---6---6---6---6---6---6---6----|
|--6---6---6---6---6---6---6---6----|
|----8---8---8---8---8---8---8---8--|
|-----------------------------------| x1
|-----------------------------------|

 --Chorus--

|------------------|
|--1---1---1---1---|
|--1---1---1---1---|
|----3---3---3---3-|
|------------------| x1
|------------------|

|------------------|
|--2---2---2---2---|
|--2---2---2---2---|
|----4---4---4---4-|
|------------------|x1
|------------------|

|------------------|
|--1---1---1---1---|
|--1---1---1---1---|
|----3---3---3---3-|
|------------------| x1
|------------------|

|------------------|
|--3---3---3---3---|
|--3---3---3---3---|
|----5---5---5---5-|
|------------------|x1
|------------------|

Repeat this sequence four times

   --OUTRO--

|---------------------------------------------------|
|-----------9--9--7--7--6--6---------6--6o----------|
|--------------6-----6-----6---8--8-----6o----------|
|---------------------------------6-----------------| x2
|------4--------------------------------------------|
|---4-----------------------------------------------|

Let the last notes ring until they fade out.
Related for Dreamer Acoustic tab
Advertisement will be closed in 10 seconds