Song name
# A B C D E F G H I J K L M N O P Q R S T U V W X Y Z

Ozzy Osbourne - See You On The Other Side tab

---------------------------------------------------------------------------
See you on the other side- Ozzy Osbourne
-------------------------------------------------------------------------------
Tabbed by:Jeremy
Email:

Tuning: Drop D

Tabbed by me just listening to the song. The other two versions dont seem right 
this sounds better.

e|----0----------------------------------------------------------------------|
B|---------3-----------------------------------------------------------------|
G|----------------0-----------------------------------------------0----------|
D|----------------------4-----------------------4-------------4--------------|
A|------------------------------------------2--------2-----------------------|
D|---------------------------------------5---------------5-------------------|

e|---------------------------------------------------------------------------|
B|---------------------------------------------------------------------------|
G|------------------------------0---------------------------------0----------|
D|--------------4------------4--------------------4-----------4--------------|
A|----------2-------2------------------------2--------2----------------------|
D|------5---------------5----------------2----------------2------------------|

e|----------------------------------------------------------------------------|
B|----------------------------------------------------------------------------|
G|---------------------------0------------------------------------------------|
D|----------------4-------4---------------------------------------------------|
A|-------0-2-3--------3-------------------------------------------------------|
D|----------------------------------------------------------------------------|
Tap to rate this tab
# A B C D E F G H I J K L M N O P Q R S T U V W X Y Z