Song name
# A B C D E F G H I J K L M N O P Q R S T U V W X Y Z

Ozzy Osbourne - Stayin Alive tab

Guitar tablature for "Stayin Alive" by "Ozzy Osbourne"
How did you like this tab? Rate it!

Artist: Ozzy Osbourne
Piece: Stayin Alive
Instrument: Guitar

This Guitar tablature for Stayin Alive by Ozzy Osbourne is rated:

Stayin' Alive


ozzy osbourne


e:----------------------------------------------------------|
B:----------------------------------------------------------|
G:-----2---------------------------2--4-4-4-4-4-4-4-4-4-4-4-|
D:-2h4---2-4-------2-----2-----2-4----4-4-4-4-4-4-4-4-4-4-4-|
A:-----------2-2h4---2h4---2-4--------2-2-2-2-2-2-2-2-2-2-2-|
E:----------------------------------------------------------|

e:-----------------------------------|
B:-----------------------------------|
G:-----2---------------------------2-|
D:-2h4---2-4-------2-----2-----2-4---| x 2
A:-----------2-2h4---2h4---2-4-------|
E:-----------------------------------|

e:----------------------------------------------------------|
B:----------------------------------------------------------|
G:-----2---------------------------2--4-4-4-4-4-4-4-4-4-4-4-|
D:-2h4---2-4-------2-----2-----2-4----4-4-4-4-4-4-4-4-4-4-4-|
A:-----------2-2h4---2h4---2-4--------2-2-2-2-2-2-2-2-2-2-2-|
E:----------------------------------------------------------|


e:-9--9--9--9--9--9--9--9--9--9--9--9--9--9--9--9--9--9--9--9--9--9--9--9--9--9--9--9--9--|
B:-10-10-10-10-10-10-10-10-10-10-10-10-10-10-10-10-10-10-10-10-10-10-10-10-10-10-10-10-10-|
G:-11-11-11-11-11-11-11-11-11-11-11-11-11-11-11-11-11-11-11-11-11-11-11-11-11-11-11-11-11-|
D:-11-11-11-11-11-11-11-11-11-11-11-11-11-11-11-11-11-11-11-11-11-11-11-11-11-11-11-11-11-|
A:-9--9--9--9--9--9--9--9--9--9--9--9--9--9--9--9--9--9--9--9--9--9--9--9--9--9--9--9--9--|
E:----------------------------------------------------------------------------------------|

e:-9---7--------9--9--9--9--9--9--9--9--9--9--9--9--|
B:-10--8--6--5--10-10-10-10-10-10-10-10-10-10-10-10-|
G:-11--9--7--6--11-11-11-11-11-11-11-11-11-11-11-11-| x 2
D:-11--9--7--6--11-11-11-11-11-11-11-11-11-11-11-11-|
A:-9---7--5--4--9--9--9--9--9--9--9--9--9--9--9--9--|
E:--------------------------------------------------|

e:---9--9--9--9--9--9--9--9--9--9--9--9--------------------|
B:--10-10-10-10-10-10-10-10-10-10-10-10--8-8-8-8-8-8-8-8-8-|
G:--11-11-11-11-11-11-11-11-11-11-11-11--9-9-9-9-9-9-9-9-9-|
D:--11-11-11-11-11-11-11-11-11-11-11-11--9-9-9-9-9-9-9-9-9-|
A:--9--9--9--9--9--9--9--9--9--9--9--9---7-7-7-7-7-7-7-7-7-|
E:---------------------------------------------------------|

e:---------------------------------------------------------|
B:---------------------------------------------------------|
G:--11-11-11-11-11-11-11-11-11-11-11-11--9-9-9-9-9-9-9-9-9-| x 2
D:--11-11-11-11-11-11-11-11-11-11-11-11--9-9-9-9-9-9-9-9-9-|
A:--9--9--9--9--9--9--9--9--9--9--9--9---7-7-7-7-7-7-7-7-7-|
E:---------------------------------------------------------|

e:-----------------------------------|
B:-----------------------------------|
G:-----2---------------------------2-|
D:-2h4---2-4-------2-----2-----2-4---| x 2
A:-----------2-2h4---2h4---2-4-------|
E:-----------------------------------|

e:----------------------------------------------------------|
B:----------------------------------------------------------|
G:-----2---------------------------2--4-4-4-4-4-4-4-4-4-4-4-|
D:-2h4---2-4-------2-----2-----2-4----4-4-4-4-4-4-4-4-4-4-4-|
A:-----------2-2h4---2h4---2-4--------2-2-2-2-2-2-2-2-2-2-2-|
E:----------------------------------------------------------|

e:-9--9--9--9--9--9--9--9--9--9--9--9--9--9--9--9--9--9--9--9--9--9--9--9--9--9--9--9--9--|
B:-10-10-10-10-10-10-10-10-10-10-10-10-10-10-10-10-10-10-10-10-10-10-10-10-10-10-10-10-10-|
G:-11-11-11-11-11-11-11-11-11-11-11-11-11-11-11-11-11-11-11-11-11-11-11-11-11-11-11-11-11-|
D:-11-11-11-11-11-11-11-11-11-11-11-11-11-11-11-11-11-11-11-11-11-11-11-11-11-11-11-11-11-|
A:-9--9--9--9--9--9--9--9--9--9--9--9--9--9--9--9--9--9--9--9--9--9--9--9--9--9--9--9--9--|
E:----------------------------------------------------------------------------------------|

e:--------------9--9--9--9--9--9--9--9--9--9--9--9--|
B:--------------10-10-10-10-10-10-10-10-10-10-10-10-|
G:-11--9--7--6--11-11-11-11-11-11-11-11-11-11-11-11-| x 2
D:-11--9--7--6--11-11-11-11-11-11-11-11-11-11-11-11-|
A:-9---7--5--4--9--9--9--9--9--9--9--9--9--9--9--9--|
E:--------------------------------------------------|

e:---9--9--9--9--9--9--9--9--9--9--9--9--------------------|
B:--10-10-10-10-10-10-10-10-10-10-10-10--8-8-8-8-8-8-8-8-8-|
G:--11-11-11-11-11-11-11-11-11-11-11-11--9-9-9-9-9-9-9-9-9-|
D:--11-11-11-11-11-11-11-11-11-11-11-11--9-9-9-9-9-9-9-9-9-|
A:--9--9--9--9--9--9--9--9--9--9--9--9---7-7-7-7-7-7-7-7-7-|
E:---------------------------------------------------------|

e:---------------------------------------------------------|
B:---------------------------------------------------------|
G:--11-11-11-11-11-11-11-11-11-11-11-11--9-9-9-9-9-9-9-9-9-| x 2
D:--11-11-11-11-11-11-11-11-11-11-11-11--9-9-9-9-9-9-9-9-9-|
A:--9--9--9--9--9--9--9--9--9--9--9--9---7-7-7-7-7-7-7-7-7-|
E:---------------------------------------------------------|

:-17b-17p14-16p14----14------------------------------------------------------------------|
:-----------------17----17p14----17p14---17p14----17p14----17p14-------------------------|
:-----------------------------16-------16------16-------16-------16-14h16p14-------------|
:----------------------------------------------------------------------------16-14-16~~~-|
:----------------------------------------------------------------------------------------|
:----------------------------------------------------------------------------------------|


e:----------------20bf-20b-20-17-----------|
B:-------------19----------------19-19~~~~-|
G:-------16-18-----------------------------|
D:-16-19-----------------------------------|
A:-----------------------------------------|
E:-----------------------------------------|


e:------------------------|
B:------------------------|
G:--4-4-4-4-4-4-4-4-4-4-4-|
D:--4-4-4-4-4-4-4-4-4-4-4-|
A:--2-2-2-2-2-2-2-2-2-2-2-|
E:------------------------|

e:------------------------------|
B:-14-----13-----12------10-----|
G:----15/----14/----13/-----11/-|
D:------------------------------|
A:------------------------------|
E:------------------------------|


e:-----------------------------------|
B:-----------------------------------|
G:-----2---------------------------2-|
D:-2h4---2-4-------2-----2-----2-4---| x 2
A:-----------2-2h4---2h4---2-4-------|
E:-----------------------------------|

e:------------------------|
B:------------------------|
G:--4-4-4-4-4-4-4-4-4-4-4-|
D:--4-4-4-4-4-4-4-4-4-4-4-|
A:--2-2-2-2-2-2-2-2-2-2-2-|
E:------------------------|

e:------------------------------|
B:-14-----13-----12------10-----|
G:----15/----14/----13/-----11/-|
D:------------------------------|
A:------------------------------|
E:------------------------------|


:-20-----19-----18-----17------|
:----19/----18/----17/----16/--|
:------------------------------|
:------------------------------|
:------------------------------|
:------------------------------|


e:-21-------18-19-18--------20-------17-18-17--------19-------16-17-16--------18-------15-|
B:----18-21----------21-18-----17-20----------20-17-----16-19----------19-16-----15-18----|
G:----------------------------------------------------------------------------------------|
D:----------------------------------------------------------------------------------------|
A:----------------------------------------------------------------------------------------|
E:----------------------------------------------------------------------------------------|


e:-16-15--------17-------14-15-14--------18-------15-16-15---------------------|
B:-------18-15-----14-17----------17-14-----15-18----------18-15---------------|
G:-----------------------------------------------------------------------------|
D:-----------------------------------------------------------------------------|
A:-----------------------------------------------------------------------------|
E:-----------------------------------------------------------------------------|
	
Tap to rate this tab
 
# A B C D E F G H I J K L M N O P Q R S T U V W X Y Z