Song name
# A B C D E F G H I J K L M N O P Q R S T U V W X Y Z

Ozzy Osbourne - Crazy Train Live tab

                          "Crazy Train Live"
                            "Ozzy Osbourne"
                              "1981"


Intro
                (crazy train..)
E----------------------------------------------|    2x
B----------------------------------------------|
G--11-11\----------------------11-11\---7---9--|
D--11-11\---2-2----------------11-11\---7---9--|
A---9--9\---0-0-0----2-2--------9--9\---5---7--|
E-----------------4--0-0--2-0------------------|
                . .       . .


E---------12~~---------------------------------|
B--12gb----------------------------------------|
G---------------11b-11b-11b-11b-11b-11b-11br---|
D----------------------------------------------|
A----------------------------------------------|
E----------------------------------------------|
                ph  ph  ph  ph  ph  ph  ph


E----------------------------------------------|  On the 4gb set volume of
B----------------------------------------------|  Treble to 10 and rhythm to
G--4gb---------------------------X\------------|  0 and alternate between the
D--------------------------------X\------------|    two.
A---------------------------0----X\------------|
E---------------------------------------17\----|


      3x
E----------------------------------|------------------------0-|
B----------------------------------|--------------------3---0-|
G----------------------------------|--------------------2---1-|
D----------------------------------|--------------------0---2-|
A------4---5---4---2-0---0-2-0-----|-------4---5---4p2------2-|
E--2-2---2---2---2-----4-------4-0-|---2-2---2---2----------0-|

Riff

E----------------------------------------------|
B-------5---------5---------3------------------|
G-------6---------4---------2----------2-----2-|
D-------7---------6---------4----------2-----2-|
A--0-00---0-0-0-0---0-0-0-0---0-0-0-0--0-----0-|
E-----------------------------------------3b---|
   . ..   . . . .   . . . .   . . . .

E-------------------------------------------------------------|
B-------5---------5---------3---------------------------------|
G-------6---------4---------2----------2----4p2p0-------------|
D-------7---------6---------4----------2----------4p2p0-------|
A--0-00---0-0-0-0---0-0-0-0---0-0-0-0--0----------------4p2p0-|
E-------------------------------------------------------------|
   . ..   . . . .   . . . .   . . . .

  now you alternate between this
E---------------------------------------------|
B-------5---------5---------3-----------------|
G-------6---------4---------2----------2----2-|
D-------7---------6---------4----------2----2-|
A--0-00---0-0-0-0---0-0-0-0---0-0-0-0--0----0-|
E-----------------------------------------3b--|
   . ..   . . . .   . . . .   . . . .

   And this
E----------------------------------------------|
B-------5---------5---------3------------------|
G-------6---------4---------2----------2---5~~-|
D-------7---------6---------4----------2-------|
A--0-00---0-0-0-0---0-0-0-0---0-0-0-0--0-------|
E----------------------------------------------|
   . ..   . . . .   . . . .   . . . .      ph


This is played right before the chorus

E--------------------------------------|
B------5\---3/5------------------------|
G------6\---2/4------2-----------------|
D------7\---4/6------0------2----------|
A--0-0----------------------0----------|
E----------------0-2----2-4----2/14\2--|
   . .           . .    . .


Chorus

E---------------------5----------------------------|
B--------------------5-5----------------3----------|
G----------------7--5---5---------------2----------|
D----------------7----------------------0--0-0-----|
A--4---4----4----5---------4---4---------------4-2-|
E--2-0-2----2-0------------2-0-2--0-2p0------------|
                    H----|


E---------------------------2---------------------------------------|
B-------------------------2---5p2h3p2--2----------------------------|
G--2-2------------------4b------------5--5p4p2--2-------------------|
D--2-2-------2--2------------------------------4--4-2---------------|
A--0-0--0----2--2-----0-------------------------------4-2h3p2h3p2-0-|
E---------4--0--0--0-4----------------------------------------------|
        . .

E----------0------------------------------------------------------0-|
B----------0---------------------------------------------------3--0-|
G--2-------1---------------------------------------------------2--1-|
D--2-------2----------------------2----------------------------0--2-|
A--0--0----2-------4---4--*-------0-----2--------4---4---*--------2-|
E-------4--0--17\--2-0-2----*-2-4---4-2-0-2-4~~--2-0-2--*--2-0----0-|
      . .                 H--|                         H--|

Repeat riff
then chorus with different fill

E--9p5--10p6--11p7--12p8---13p9---14p10---------|
B------7-----8-----9-----10-----11------12------|
G-----------------------------------------------|
D-----------------------------------------------|
A-----------------------------------------------|
E-------------------------------------------14\-|


Bridge

E--------------------------------------------------|
B--------------------------------------------------|
G-11-11\-------------------11-11\--7-7--9-9-11-11\-|
D-11-11\--2-2--------------11-11\--7-7--9-9-11-11\-|
A--9--9\--0-0-0---2-2-------9--9\--5-5--7-7--9--9\-|
E---------------4-0-0--2-0-------------------------|
              . .      . .

E----------------------------------|
B----------------------------------|
G-------------------11-11\---7---9-|
D--2-2--------------11-11\---7---9-|
A--0-0-0---2-2-------9--9\---5---7-|
E--------4-0-0--2-0----------------|
       . .      . .


Solo
  T     T          T     T          T     T          T     T
E---------------------------------------------------------------------|
B-14p10-14p10p7h10-14p10-14p10p7h10-14p10-14p10p7h10-14p10-14p10p7h10-|
G---------------------------------------------------------------------|
D---------------------------------------------------------------------|
A---------------------------------------------------------------------|
E---------------------------------------------------------------------|
   T    T          T     T          T     T          T     T
E---------------------------------------------------------------------|
B-15p10-15p10p7h10-15p10-15p10p7h10-15p10-15p10p7h10-15p10-15p10p7h10-|
G---------------------------------------------------------------------|
D---------------------------------------------------------------------|
A---------------------------------------------------------------------|
E---------------------------------------------------------------------|
                                  T     T     T                     T
E-------------------------------------------------------------------------|
B-------------------------------------------------------------------------|
G-11b(grad.release while tapping)-14p11-14p11-14p11-11b(same thing)-12p11-|
D-------------------------------------------------------------------------|
A-------------------------------------------------------------------------|
E-------------------------------------------------------------------------|
   T     T
E-------------------------17-16-14--------14-16-17-17b~~---|
B------------------10--------------17b~~-------------------|
G--12p11-12p11--9b----9b-----------------------------------|
D----------------------------------------------------------|
A----------------------------------------------------------|
E----------------------------------------------------------|

E--14-17-14----14------------------------------------------|
B-----------17----17p15p14-15p14----14------------17-------|
G--------------------------------16----16p14--16b----14~~--|
D----------------------------------------------------------|
A----------------------------------------------------------|
E----------------------------------------------------------|

E-17p14h17p14h17p14h17p14h17p14h18p15h19p16h21p17h21p17h21p17h21p17-
B-------------------------------------------------------------------|
G-------------------------------------------------------------------|
D-------------------------------------------------------------------|
A-------------------------------------------------------------------|
E-------------------------------------------------------------------|

E-20p16h20p16h20p16h20p16-14h16p14----17-------|
B----------------------------------17b---17b~~-|
G----------------------------------------------|
D----------------------------------------------|
A----------------------------------------------|
E----------------------------------------------|

E--------------------------------------------------------------------------|
B-15-14--------------------------------------------------------------------|
G-------16--14----------14----------14----------14-------------------------|
D--------------16-14-------16-14-------16-14-------16-14----13h14p13h14/16-|
A--------------------16----------16----------16----------16----------------|
E--------------------------------------------------------------------------|
             .  .  .  .  .  .  .  .  .  .  .  .  .  .  .  .

E-------------------------------------------------------14-------19b-19~~-|
B-------------------------------------------------14h17----17/19----------|
G----------------------------------------13h14h16-------------------------|
D----------------------11h12h14-13h14h16----------------------------------|
A-------------12h14h16----------------------------------------------------|
E-11/12h14h16-------------------------------------------------------------|

     3x
E----------------------------------|---------------------0-|
B----------------------------------|------------------3--0-|
G----------------------------------|------------------2--1-|
D----------------------------------|------------------0--2-|
A------4---5---4---2-0--0-2-0------|-----4---5---4p2-----2-|
E--2-2---2---2---2-----4------4-0--|-2-2---2---2---------0-|

Repeat riff
Repeat chorus with different fill

E--17b--17p14---14------------------------------------------|
B-------------17---17p14p15p14-----14-----------------------|
G-------------------------------16----16-14-----------------|
D--------------------------------------------16-14----------|
A--------------------------------------------------16-------|
E------------------------------------------------------14b\-|

Outro
              2x
E-------------------------------------------|
B-------------------------------------------|
G-11-11\---------------------11-11\--7----9-|
D-11-11\--2-2----------------11-11\--7----9-|
A--9--9\--0-0-0----2-2--------9--9\--5----7-|
E---------------4--0-0--2-0-----------------|
              . .       . .

E---------12~~~-------------------------------------------------------------|
B--12gb---------------------------------------------------------------------|
G----------------11b-11b-11b-11b-11b-11b-11br------4gb(toggle switch thing)-|
D---------------------------------------------------------------------------|
A---------------------------------------------------------------------------|
E---------------------------------------------------------------------------|
                  ph  ph  ph  ph  ph  ph  ph
E-----------------------------------------------------------------------|
B-----------------------------------------------------------------------|
G--X\-------------------------------------------------------------------|
D--X\-------------------------------------------------------------------|
A--X\-----4---5---4---2-0---0-2-0-----------4---5---4---2-0---0-2-0-----|
E-----2-2---2---2---2-----4-------4-0---2-2---2---2---2-----4-------4-0-|

E----------------------------------------------------------0-------|
B-------------------------------------------------------3--0--7-7\-|
G-------------------------------------------------------2--1--6-6\-|
D-------------------------------------------------------0--2--4-4\-|
A------4---5---4---2-0---0-2-0-----------4---5---4p2-------2-------|
E--2-2---2---2---2-----4-------4-0---2-2---2---2-----------0-------|


You are FINALY done!!!!!!!

                             LEGEND

                          \=slide down the neck
                          .=palm mute
                         gb=grad.bend
                          ~=vibrato
                          b=bend
                         ph=pinch harmonic
                          X=pick scratch
                          p=pull-off
                          H=natural harmonic
                          h=hammer-on
                          *=harmonic located between 2nd and 3rd frets
                          T=Tap with pick or right hand middle finger
                          /=slide up the neck

Please rate,comment,and take a moment to remember Randy Rhoads.
Tap to rate this tab
 
# A B C D E F G H I J K L M N O P Q R S T U V W X Y Z